letra, letras, acorde, acordes, tablatura, tablaturas, partitura, partituras de la canción La descarada de Reyli, 16393

La descarada de Reyli

Colaboración de Christian Said Flores Cancino

(said_2099 @ hotmail.com)          (Visitas: 4319)

Ver La descarada de Reyli en vista para impresión



¿Dudas de cómo es un acorde? Visitar la página cómo formar acordes en guitarra

                    Em                                 D
|---------------------------2-----3----------------------------0------2--
|-------------------------3---3------------------------------3---3-------
|-----------------------2-------2--------------------------2-------2-----
|---------------------2----------------------------------0---------------
|------------------------------------------------------------------------
|------------------------------------------------------------------------                           
        Es una descarada...         por ser la mas hermosa...

                        C/Am           A/Am              B/B7
|-----------------------------------------------------------------0-----2-
|---------------------------------------------------------------0---0-----
|----------------------------1-0-1---------1-0-1--------------0-------2---
|--------------------------2-------------2------------------2-------------
|-------------------------------------------------------------------------
|-----------------------3--------------0------------------2---------------
|-------------------------------------------------------------------------
       No tiene casi nada,    pero le gusta..    la vida cara

                Em                    D 
Y a mi me gusta ella, y se cuanto me ama
                C/Am         A/Am            B/B7
Se que sueña conmigo, pero amanece en otra cama


     Am        D         Em
El dinero le robo su corazon
      Am           D        Em
La mentira le desalmaron el alma
      Am          D
Y me duele su dolor
    Em (Em7)         A7
Mucho mas que su traicion
     Am7         B7              Em
Yo naci para quererla aunque se vaya


          Am              D
Mujer de nadie Mujer de todos
           Em
Mujer que mata
           Am                 D
Mujer que duele Mujer que entrega 
          Em
y te arrebata
           Am   B7        Em   A7
Mujer tan cara  Mujer ingrata
       Am7          B7            Em
Se que no me olvidaras aunque te vayas
          Am7          B7               Em  -  Em7
Yo se que no me olvidaras... aunque te vayas


               Em
En mi cartera guardo
              D
su foto desgastada
               C             Am
es mi mayor fortuna y mi desdicha 
     B7
la descarada


                Em
yo seguire mi rumba
                 D
el mundo no se acaba
                 C
esta vida es muy corta
    Am          B7
te cobra y te paga


     Am        D         Em
El dinero le robo su corazon
      Am           D        Em
La mentira le desalmaron el alma
      Am          D
Y me duele su dolor
    Em                A7
Mucho mas que su traicion
     Am7         B7              Em
Yo naci para quererla aunque se vaya


hey... 
          Am              
Mujer de nadie Mujer de todos
           Em
Mujer que mata
           Am                 D
Mujer que duele Mujer que entrega 
          Em
y te arrebata
           Am   B7        Em   A7
Mujer tan cara  Mujer ingrata
       Am7          B7               Em
Se que no me olvidaras... aunque te vayas

Descarada!

          Am
Mujer de nadie...



PD:Escuchala primero, empieza arpegeada y ya de ahi los tonos como Em (Em7) 
ó los Am con Am7 los puedes combinar con el ritmo tipo flamenco; y al final 
parece que sube 1 tono. Dudas, quejas, sugerencias y demas al e-mail, 
                   gracias.



Keywords / Palabras clave: La descarada, Reyli, letras, letra, acordes, canciones, cancion, grupo, banda, cantante, tablatura, partitura, tocar con guitarra, armónica, teclado, bajo, ejecutar, bajar, mp3, música, chords, lyrics, versión, cover, piano, acrodes, acordes de La descarada, Reyli

Inicio | Artistas | Recursos | Buscar | AGREGA TU TABLATURA A 10ACORDES | Contacto

www.10acordes.com.ar - 2014© - 2014-10-24 22:07:03