letra, letras, acorde, acordes, tablatura, tablaturas, partitura, partituras de la canción La novia fea de Acapulco Tropical, 17280

La novia fea de Acapulco Tropical

Colaboración de Valentin Manoatl Ordoñez

(rot_wannabie @ hotmail.com)          (Visitas: 2814)

Ver La novia fea de Acapulco Tropical en vista para impresión



¿Dudas de cómo es un acorde? Visitar la página cómo formar acordes en guitarra

El acompañamiento es en corrido; asi se llama el acompañamiento:'CORRIDO'

ENTRADA 
		D				   A

1|-----------5-10-10--5--7-7-5-7-5-5--------------5-9-5-7-7-5-----
2|---------7-------------------------8----------5-------------8-5-
3|-7-7-7-7------------------------------6-6-6-6-------------------

	
	D	   
1|-----5-5-----5-5- 
2|---7-------7----- 
3|-7-------7------- 

	A		    
1|-----5-5------5-5-
2|---5--------5----- 
3|-6--------6------- 

	2 VESES		  


D   
yo tego una novia linda
			A
que me disen que esta fea

sus ojos que maravilla
		   D
parecen maria la fea
		      
su nariz un poco garnde
		   A
parece ametralladora

y cuando la boca ella abre
		    D
parece una aspiradora



	CORO

yo si la quiero 
	       A
aun que este fea

sin ella muero
		D
anque no lo crean

aun que no le crean
	     A
sin ella muero

aun que este fea
	      D
yo si la quiero

 

	ENTRADA





sus piernas me tienen loco
		 A
su modo de caminar

por que ella se mueve un poco
		    D
parece que va a volar

todoS le gritan que es fea
		   A
y se empiezan a reir

pero aun que nadie la quiera
		    D
con ella yo soy feliz


	CORO




	D	  		A			D		    A
1|---------5---------5---------5---------5----------5----------5----------5---------5-
2|---7---7----7---7------5---5-----5---5------7---7------7---7------5---5-----5---5---
3|-7---7----7---7------6---6-----6---6------7---7------7---7------6---6-----6---6-----

	D			A			D
1|---------5---------5----------5---------5----------5----------5-
2|-------7---------7----------5---------5----------7----------7---
3|-7-7-7-----7-7-7------6-6-6-----6-6-6------7-7-7------7-7-7-----

	A		    	D
1|---------5---------5----------5-
2|-------5-----5---5------7---7---
3|-6-6-6-----6---6------7---7-----




todoS le gritan que es fea
		   A
y se empiezan a reir

pero aun que nadie la quiera
		    D
con ella yo soy feliz


	CORO




1|-5-5-5---5-5-5-3-5-5-5-3-5-5-5---5-5-5-----5-5-5-3-5-5-5-3-5-5-5-----
2|-7-7-7-7-7-7-7-5-7-7-7-5-7-7-7-7-7-7-7-7---7-7-7-5-7-7-7-5-7-7-7-7-7-
3|-------7-----------------------7-------7-------------------------7-7-



Dudas y sugerencias
con el root ;-)



Keywords / Palabras clave: La novia fea, Acapulco Tropical, letras, letra, acordes, canciones, cancion, grupo, banda, cantante, tablatura, partitura, tocar con guitarra, armónica, teclado, bajo, ejecutar, bajar, mp3, música, chords, lyrics, versión, cover, piano, acrodes, acordes de La novia fea, Acapulco Tropical

Inicio | Artistas | Recursos | Buscar | AGREGA TU TABLATURA A 10ACORDES | Contacto

www.10acordes.com.ar - 2014© - 2014-09-02 15:33:54