letra, letras, acorde, acordes, tablatura, tablaturas, partitura, partituras de la canción La rosa de los vientos de Mago De Oz, 17605

La rosa de los vientos de Mago De Oz

Colaboración de (« § € n § € i ») (TAB)

(sensei @ angranet.zzn.com)          (Visitas: 13011)

Ver La rosa de los vientos de Mago De Oz en vista para impresión



¿Dudas de cómo es un acorde? Visitar la página cómo formar acordes en guitarra

Eso es! Muy grande! DAHJ!...Aqui esta el solo de la Rosa de los Vientos version metal
Jorge Salan vale mucho la pena, esta bien pesado y mis respetos para el.

E|--7p4h5h7p5p4-|-9p5h7h9p7p5-|-11p7h9h11p9p7-|-12p9h11h12p11p9-|-14p11h12h14p12p11--
B|--------------|-------------|---------------|-----------------|--------------------
D|--------------|-------------|---------------|-----------------|--------------------
G|--------------|-------------|---------------|-----------------|--------------------
A|--------------|-------------|---------------|-----------------|--------------------
E|--------------|-------------|---------------|-----------------|--------------------

--16p12h14h16p14p12-|-17p14h16h17p16p14--|-19p16h17h19p17p16-19b21---19--------------
--------------------|--------------------|------------------------------19b21b19-17--
--------------------|--------------------|-------------------------------------------
--------------------|--------------------|-------------------------------------------
--------------------|--------------------|-------------------------------------------
--------------------|--------------------|-------------------------------------------
                                    *
----------|--------------------------------------------------------------------------
--16------|--------------------------------------------------------------------------
-----16~--|----------------------------------------------------------14-------14-16--
----------|----------14----------14-------14-16----14-16-18-14-16-18----16-18--------
----------|-14-16-18----14-16-18----16-18-------18-----------------------------------
----------|--------------------------------------------------------------------------

------------------------------------------------------------16-------16-17-19~-------
------------------------16-------16-17----16-17-19-16-17-19----17-19-----------------
------14-16-18-14-16-18----16-18-------18--------------------------------------------
---18--------------------------------------------------------------------------------
-------------------------------------------------------------------------------------
-------------------------------------------------------------------------------------

--12-0-0-11-0-0-9-0-0-7-0-0-5-0-4-0-5-0-0-4-0-0--------------------------------------
------------------------------------------------7-0-0-5-0-0-4-0-5-0-/7~---5----------
----------------------------------------------------------------------------6\4-2h4~-
-------------------------------------------------------------------------------------
-------------------------------------------------------------------------------------
-------------------------------------------------------------------------------------
P.M                                             ............
---------14b16----------15b17-14b16b14-12\-----12-14b16-12--------------|
---12-12----------12-12---------------------12--------------------------|
-----------------------------------------------------------11b13b11-9~--|
------------------------------------------------------------------------|
------------------------------------------------------------------------|
------------------------------------------------------------------------|

* - Aquí es donde empieza el efecto del delay. Si hacen bien toda la escala
    sonara a la perfeccion, comparen.
  - La escala de al principio la pueden empezar en la segunda cuerda tambien
    asi que haganla donde se les haga mas comodo o donde suene mejor

(¤«^§Ên§Êi^»¤)



Keywords / Palabras clave: La rosa de los vientos, Mago De Oz, letras, letra, acordes, canciones, cancion, grupo, banda, cantante, tablatura, partitura, tocar con guitarra, armónica, teclado, bajo, ejecutar, bajar, mp3, música, chords, lyrics, versión, cover, piano, acrodes, acordes de La rosa de los vientos, Mago De Oz

Inicio | Artistas | Recursos | Buscar | AGREGA TU TABLATURA A 10ACORDES | Contacto

www.10acordes.com.ar - 2014© - 2014-11-24 10:26:59