letra, letras, acorde, acordes, tablatura, tablaturas, partitura, partituras de la canción La Vereda De La Puerta De Atrás de Extremoduro, 18180

La Vereda De La Puerta De Atrás de Extremoduro

Colaboración de Ripoll (TAB)

(ripoll_carlos @ hotmail.com)          (Visitas: 17601)

Ver La Vereda De La Puerta De Atrás de Extremoduro en vista para impresión



¿Dudas de cómo es un acorde? Visitar la página cómo formar acordes en guitarra

Hola a todos, esta es la primera tablatura que hago y espero q este bien.
Como muxas de las canciones de extremo, esta tambien tiene cejilla en el primer traste.
REPITO CEJILLA EN EL PRIMER TRASTE SINO NO SUENA IGUAL

Punteo intro:

F ||------------------------------------------------------------------
C ||------------------------------------------------------------0-1-0-
Ab||-------------------------------------------0-2-2-0-0----0-2-------
Eb||-----------------------------------0---0-2-----------2------------
Bb||--0-2-3--3-2--2-0--2-------0---2-3---3----------------------------
F ||---------------------3-0-3----------------------------------------

f ||------------------------------------------------------------------
c ||----0-------------------------------------------------------1x-1-3b
Ab||--2---0-----------------------------------------0x----0x-2x-------
Eb||--------2-1---0----------------------------0-2x----2x-------------
Bb||------------3---2------------0-2-3--3-2--3------------------------
F ||------------------------------------------------------------------

f ||---------------------------------3-------------------3/5-3---3-1------------------
c ||--1-3-3-1-0----------0-1-3-1-3/5---5h3h1-3h1---3-1---------5-----5~~3-5^5^-3-1-3-0
Ab||------------2-0--0-2-------------------------2-----2------------------------------
Eb||----------------------------------------------------------------------------------
Bb||----------------------------------------------------------------------------------
F ||----------------------------------------------------------------------------------


Acordes Intro:                                              Fill 1
------                                                    ----------
e||-------------------------------------------------------|--------||
B||-------------------------------------------------------|--------||   mientras 
G||-------------------------------------------------------|----10--||x2 suena el
D||--2-4-5--5-4--4-2--4-2--2/4\2---2-4-5xx-7xx-9-7-5-4-2--|--9-----||   punteo.
A||--2-4-5--5-4--4-2--4-2--2/4\2---2-4-5xx-7xx-9-7-5-4-2--|--------||
E||--0-2-3--3-2--2-0--2-0--0/2\0---0-2-3xx-5xx-7-5-3-2-0--|--------||


Si no fuera porque hice colocado
el camino de tu espera
me habria desconectado.
Condenado
a mirarte desde fuera
y dejar que te tocara el sol.

Fill 1
      
Y si fuera
mi vida una escalera
me la he pasado entera
buscando el siguiente escalon,
convencido
que estas en el tejado
esperando a ver si llego yo.

Estribillo:
-----------
f ||------------3--------------------0---------------------2-----------0-----||
c ||------------3--------------------0---------------------3-----------1-----||
Ab||------------0--------------------0------------------4-----------0--------||
Eb||--------0---------------------2------------------4-----------2-----------||
Bb||-----2---------------------2------------------2-----------3--------------||
F ||--3---------------- ----0------------------------------------------------||
      Y dejar de lado la vereda de la puerta de atrás por donde te vi marchar
como una regadera que la hierba hace que vuelva a brotar y ahora es todo campo ya.

Estrofas:
---------
Sus soldados
son flores de madera
y mi ejercito no tiene
bandera, es solo un corazon.
Condenado
a vivir entre maleza
sembrando flores de algodon.
       
Fill 1
 
Si me espera
la muerte traicionera
y antes de repartirme
del todo, me veo en un cajón.
Que me entierren
con la picha por fuera
pa que se la coma un raton.

Estribillo:
-----------
Y muere a todas horas gente dentro de mi televisor, quiero oír alguna canción
que no hable de sandeces y que diga que no sobra el amor y que empiece en sí y no en no. 

Y dejar de lado la vereda de la puerta de atrás por donde te vi marchar
como una regadera que la hierba hace que vuelva a brotar y ahora es todo campo ya.

Cambio:
-------
Guitarra 1
Riff
f ||----------------------------------------------------------||
c ||----------------------------------------------------------||
Ab||--0-0-0-0-0-5-4-0-0-0----------0-0-0-0-0-5-4-0-0-0--------||      x8      y
Eb||-----------------------3-2-2------------------------3-2-3-||  cogiendo velocidad.
Bb||----------------------------------------------------------||
F ||----------------------------------------------------------|| 

Guitarra 2(se mete cuando la guitarra 1 ha hecho el riff una vez

f ||----------------------------------------------------------||
c ||--1-1-1-1-1-5-3-0-0-0----------1-1-1-1-1-5-3-0-0-0--------||
Ab||-----------------------2-0-0------------------------2-0-2-||      x7      y
Eb||----------------------------------------------------------||  cogiendo velocidad.
Bb||----------------------------------------------------------||
F ||----------------------------------------------------------|| 


f ||-----------------------------------------------------||
c ||-----------------------------------------------------||
Ab||--------------------------5--5-----------------------||
Eb||--2--2--------------------5--5-----------------5--5--||
Bb||--2--2--------------------3--3-----------------5--5--||
F ||--0--0-----------------------------------------3--3--||
Dices que a veces no comprendes que dice mi voz .

f ||-----------------------------------------------------||
c ||-----------------------------------------------------||
Ab||------------------------7--7-------------------------||
Eb||------------------------7--7-------------------------||
Bb||------------------------5--5-------------------------||
F ||-----------------------------------------------------||
 ¿Como quieres que este dentro de tu ombligo?

f ||-----------------------------------------------------||
c ||-----------------------------------------------------||
Ab||-----------------------------5--5--------------------||
Eb||--2--2-----------------------5--5--------------5--5--||
Bb||--2--2-----------------------3--3--------------5--5--||
F ||--0--0-----------------------------------------3--3--||
      Si entre los dedos se me escapa volando una flor

f ||--------------------------------------------------||
c ||--------------------------------------------------||
Ab||---------------------7--7-------------------------||
Eb||---------------------7--7-------------------------||
Bb||---------------------5--5-------------------------||
F ||--------------------------------------------------||
    y ella solita va marcando el camino.

Y luego para acabar el riff de antes, esta vez las dos guitarras empiezan juntas.
  
 Guitarra 1
f ||----------------------------------------------------------||
c ||----------------------------------------------------------||
Ab||--0-0-0-0-0-5-4-0-0-0----------0-0-0-0-0-5-4-0-0-0--------||        x3        y
Eb||-----------------------3-2-2------------------------3-2-3-||  disminuyendo velocidad.
Bb||----------------------------------------------------------||
F ||----------------------------------------------------------|| 

 Guitarra 2
f ||----------------------------------------------------------||
c ||--1-1-1-1-1-5-3-0-0-0----------1-1-1-1-1-5-3-0-0-0--------||
Ab||-----------------------2-0-0------------------------2-0-2-||      x3      y
Eb||----------------------------------------------------------||  cogiendo velocidad.
Bb||----------------------------------------------------------||
F ||----------------------------------------------------------|| 

Final

Guitarra 1
f ||--/18-20-21---14-16-18------------------------------------||
c ||------------------------14-16-----------------------------||
Ab||----------------------------------------------------------||        
Eb||----------------------------------------------------------||  
Bb||----------------------------------------------------------||
F ||----------------------------------------------------------|| 

Guitarra 2
f ||---------------------------3------------------------------||
c ||---------------------------3------------------------------||
Ab||--7-9-10-7-3-5-7-3---------4------------------------------||     
Eb||-------------------3h5h3h5-3------------------------------||  
Bb||---------------------------5------------------------------||
F ||---------------------------3------------------------------|| 


Creo k es mas o menos asi. Para los k tengais un grupo de musik,
a lo mejor saco la tablatura de la bateria.

              Ripoll



Keywords / Palabras clave: La Vereda De La Puerta De Atrás, Extremoduro, letras, letra, acordes, canciones, cancion, grupo, banda, cantante, tablatura, partitura, tocar con guitarra, armónica, teclado, bajo, ejecutar, bajar, mp3, música, chords, lyrics, versión, cover, piano, acrodes, acordes de La Vereda De La Puerta De Atrás, Extremoduro

Inicio | Artistas | Recursos | Buscar | AGREGA TU TABLATURA A 10ACORDES | Contacto

www.10acordes.com.ar - 2014© - 2014-12-20 14:39:52