letra, letras, acorde, acordes, tablatura, tablaturas, partitura, partituras de la canción Legalízenla de viejas locas, 18493

Legalízenla de viejas locas

Colaboración de pau 25 (TAB)

(pau25_25 @ hotmail.com)          (Visitas: 24197)

Ver Legalízenla de viejas locas en vista para impresión



¿Dudas de cómo es un acorde? Visitar la página cómo formar acordes en guitarra

este es el punteo que va en la mitad de la cancion!
e--------8-7-----------  -------8-7----------  --------------
b-----10-------10------  ---10-------10------  -6-6-6-6--6-8--6-5
g--9---------------9---  -9--------------9---  --------------
d----------------------  --------------------  --------------
a----------------------  --------------------  --------------
e----------------------  --------------------  --------------


-------8--7------  ---------8-7---------  ----------------
----10------10---  -----10--------10----  --6-6-6-6---6-8-
-9-------------9-  --9----------------9-  ----------------
-----------------  ---------------------  ----------------
-----------------  ---------------------  ----------------
-----------------  ---------------------  ----------------

---------------------------------------------------------------
--5-6--3-5-----------------------------------------------------
------------5-7--4-5---2-4---2-0-2---2-4-5---4-5-7---5-7-9---7-9-10--
---------------------------------------------------------------
---------------------------------------------------------------
---------------------------------------------------------------


--------8-7-------------------8-7-------------------------
----10--------10----------10-------10------8--6666--888---------------
--9---------------9-----9--------------9------------------
------------------------------------------------------
-------------------------------------------------------
-------------------------------------------------------

         Lam               Mim
Hubo tiempos de guerra, tiempos de paz,
     Rem
hubo tiempo en que era iligal.
   Lam                 Mim
Pero hermano nuestra mente cambió,
   Rem
no podemos seguir con esta tradición.
Lam              Mim           Rem
Son tiempos de cambio y el tiempo al mismo tiempo cambió
Lam          Mim        Rem
Si hasta la terrible ley seca cayó.

Legalícenla.

Vos tenés conciencia de saber,
que está bien y que está mal
la policía debe llevarte si robás o asesinás,
pero no entiendo por qué no estoy en libertad,
sólo por fumar la hierba de la paz.

Legalícenla.Lam MIm Rem

Si mis cigarros tienen otro relleno por qué me miras mal.
Si de la tierra crece hierba santa,
por qué no la puedo fumar.
Pagamos precios y riesgos muy caros para conseguir,
lo que la naturaleza nos dá nadie nos debería prohibir.
Yo canto esto para que me escuchen y se den cuenta
que hay mucha gente que no quiere estar presa por fumar hierba.
Somos una nueva raza, una nueva generación
pongamos fín a esta tradición.

Legalícenla.



Keywords / Palabras clave: Legalízenla, viejas locas, letras, letra, acordes, canciones, cancion, grupo, banda, cantante, tablatura, partitura, tocar con guitarra, armónica, teclado, bajo, ejecutar, bajar, mp3, música, chords, lyrics, versión, cover, piano, acrodes, acordes de Legalízenla, viejas locas

Inicio | Artistas | Recursos | Buscar | AGREGA TU TABLATURA A 10ACORDES | Contacto

www.10acordes.com.ar - 2014© - 2014-07-29 19:31:54