letra, letras, acorde, acordes, tablatura, tablaturas, partitura, partituras de la canción Lejos de 6 voltios, 18507

Lejos de 6 voltios

Colaboración de GERSON ANDRES MORALES DURAND (TAB)

(GYG12 @ HOTMAIL.COM)          (Visitas: 2510)

Ver Lejos de 6 voltios en vista para impresión



¿Dudas de cómo es un acorde? Visitar la página cómo formar acordes en guitarra

AKI STA K-RAJO......

LEJOS (6-VOLTIOS) VERSION EN VIVO!!!!!!

INTRO (K-GON)MUY PUICHANGA PA MI.....

PERATE PERATE....
STOY SUMAMENTE AGOTADO WEON!!!!!
UN DSK-NZO X FAVOR!!!!
PERO Y BUENO PUESSS DEJAME HABLAR KONCHATUVIDA!!!!1
SI YA ME LARGO YA!!!!!
YA ME LLEGO AL PINCHO STA WEBADA!!!!!1

		---- A ----
E|------------------------------------------|
B|------------------------------------------|
G|------------------------------------------|
D|-00000000-222-000-22-44444444-777-555-4-5-|              YA MIERDA......
A|------------------------------------------|              HACES 'A' Y 'B' 
E|------------------------------------------|		   LUEGO LO REPITES
							   Y FINALIZAS KON EL 'C' 
		---- B ----		      -C-    	      
E|-------------------------------------------|---|
B|-------------------------------------------|---|
G|-------------------------------------------|---|
D|----------555-444-0-2----------555-444-0-2-|-0-|
A|-22222222-------------00000000-------------|---|
E|-------------------------------------------|---|

AHORA SI SAKEN-C LA MIERDA!!!!!!

NOTAS:

   D5   F_5  B_5  G5  A5
E|-X-||-X-||-X-||-X-||-X-|
B|-X-||-X-||-X-||-X-||-X-|	STAS SON LAS NOTAS...
G|-7-||-X-||-4-||-X-||-X-|      TODO C REPITE EN VERSOS
D|-7-||-4-||-4-||-5-||-7-|      Y COROS TODO IGUAL......
A|-5-||-4-||-2-||-5-||-7-|	LAS 'X' SIGNIFICA KE NO C TOKAN
E|-X-||-2-||-X-||-3-||-5-|	ESAS KUERDAS. SOLO TOKA LAS PISADAS...



PA KE TE APRENDAS LA LETRA PO-C-RO DE MIERDA!!!!!!!


D5             F#5           B5                 G5      A5
  stoy k-nsado, tan aburrido, ya no me importa, ya no kiero star aki.

D5     F#5                    B5           G5         A5
  Me diste la spalda 1 vs + y sta vs fue suficiente para mi.

D5                     F#5         B5                   G5     A5 
  Me largo, no me importa, tu vida. ¡Me llega al pincho! stare lejos de aki.



D5 F#5 B5 G5 A5 (x2)



D5              F#5                      B5                    G5      A5
  Puedes kedarte kon todo tu k-riño y tu amor, ni me hacen falta, la apatia me gano.

D5       F#5                   B5                 G5             A5          
  Y t daré la spalda 1 vs mas komo tu tambien lo hiciste konmigo.

D5                     F#5         B5                   G5     A5 
  Me largo, no me importa, tu vida. ¡Me llega al pincho! stare lejos de aki.

D5            F#5                       B5                    G5       A5
  En mis ojos ahora solo hay odio y rn-kor, x tu kulpa.(¡x tu kulpa!)


D5 F#5 B5 G5 A5 (x4)x 

e|-X-||-X-|
b|-X-||-X-|   ]]]]]]] DS-PUES KE HACES STO, DICES::: (PERO LO DICES MIERDA!!!!)
g|-9-||-7-|                                           SI NO, NO SALE......
d|-9-||-7-|
a|-7-||-5-|
e|-X-||-X-|


	********''''''........ASU MADRE!!!!!!!!!!!!!!'''''''***********
			Y KANTAS STO TODO K-NSADO!!!!!

  Me largo, no me importa, tu vida. ¡Me llega al pincho! starE lejos de aki.

  En mis ajos ahora solo hay odio y rn-kor, x tu kulpa.(x tu kulpa!)


D5                     F#5         B5                   G5     A5 
  Me largo, no me importa, tu vida. ¡Me llega al pincho! stare lejos de aki.
D5           F#5                        B5                    G5       A5
  En mis ojos ahora solo hay odio y rn-kor, x tu kulpa.(x tu kulpa!)


D5 F#5 B5 G5 A5 (x4)x 

   
AKI STA EL SOLO DE EMILIO!!!!       TA PICHANGA!!!!!!!!!

E|-----------------------------------------------------------|
B|---------------------7-7-7-7-10-8-7------------------------|
G|-7-7-7-7-7-9-7-9-7-9----------------9-7----------9-7-9-7-9-|
D|-----------------------------------------9-9-9-9-----------|
A|-----------------------------------------------------------|
E|-----------------------------------------------------------|

E|--------------------|
B|-8-8-8-8-7----------|
G|-----------9-7-6-7--|
D|--------------------|
A|--------------------|
E|--------------------|



		POR HOY STO S TODO EN LA KLA-C.....
		OTRO DIA KONTINUARAN LAS KLA-CS....
		PA + PEDIDOS KONTAKTARME A   (  KENNY@ANGELESDELINFIERNO.COM  )

PA MI PATA CESAR K-RAJO KE LO XTRAÑO UN HuEVO
Y DEDIKADO PA' LA (CHATA) 'KATHIE LAZO' KE C KAGA X 6-VOLTIOS!!!!!!
KATHIE YA PES KUANDO ES???????? YA LE MANDE A LA MIERDA A CANDY...... KE DICES????



Keywords / Palabras clave: Lejos, 6 voltios, letras, letra, acordes, canciones, cancion, grupo, banda, cantante, tablatura, partitura, tocar con guitarra, armónica, teclado, bajo, ejecutar, bajar, mp3, música, chords, lyrics, versión, cover, piano, acrodes, acordes de Lejos, 6 voltios

Inicio | Artistas | Recursos | Buscar | AGREGA TU TABLATURA A 10ACORDES | Contacto

www.10acordes.com.ar - 2014© - 2014-10-20 07:57:18