letra, letras, acorde, acordes, tablatura, tablaturas, partitura, partituras de la canción Llegaste tú de Daniel Agostini, 18811

Llegaste tú de Daniel Agostini

Colaboración de Luquitas (TAB)

(luquitas200 @ hotmail.com)          (Visitas: 1812)

Ver Llegaste tú de Daniel Agostini en vista para impresión



¿Dudas de cómo es un acorde? Visitar la página cómo formar acordes en guitarra

Intro: (sobre teclado) Am

1|-----0-----0-5-0-3-----|-------------3---------|
2|---1-----1---------6-3-|-----3-----3---3-5-3---|
3|-2-----2---------------|---4-----4-----------5-| x2
4|-----------------------|-5-----5---------------|
5|-----------------------|-----------------------|
6|-----------------------|-----------------------|

1|-----12-----12-17-12-15-13----|--------------15----------|
2|---13-----13---------------15-|-----15-----15—15-17-15---|
3|-14-----14--------------------|---16-----16-----------17-|x2
4|------------------------------|-17-----17----------------|
5|------------------------------|--------------------------|
6|------------------------------|--------------------------|

1|-------------|
2|-------------|
3|-17-15-15-13-|
4|-------------|
5|-------------|
6|-------------|

Am                                   G
Tu besos me han embrujado ya tantas veces
      F                                C  G
que quiero que tu me embrujes una vez mas
   Am                           G
en mi corazon tenia un gran vacio
     F                                 C  G
sentia que eras tu quien lo hiba a ocupar.

  Am
Y tu llegaste mujer 
   G
echando a mi soledad
      F
te entrego mi corazon
    G
la vida te voy a dar.

Am               G
Todo era oscuridad 
                   F
mi cuerpo en soledad 
               C
pero llegaste tu
Am               G
tu me tragiste paz 
              F
luz y felicidad 
                  C
mi amor llegaste tu
     Am
solo tu



Keywords / Palabras clave: Llegaste tú, Daniel Agostini, letras, letra, acordes, canciones, cancion, grupo, banda, cantante, tablatura, partitura, tocar con guitarra, armónica, teclado, bajo, ejecutar, bajar, mp3, música, chords, lyrics, versión, cover, piano, acrodes, acordes de Llegaste tú, Daniel Agostini

Inicio | Artistas | Recursos | Buscar | AGREGA TU TABLATURA A 10ACORDES | Contacto

www.10acordes.com.ar - 2014© - 2014-10-25 11:13:17