letra, letras, acorde, acordes, tablatura, tablaturas, partitura, partituras de la canción Llorarás de Oscar de León, 18898

Llorarás de Oscar de León

Colaboración de Cesar Orellana (BAS)

(cesaoes @ yahoo.com)          (Visitas: 3188)

Ver Llorarás de Oscar de León en vista para impresión



¿Dudas de cómo es un acorde? Visitar la página cómo formar acordes en guitarra

Esta cancion es mi primera transcripcion que 
hago, estoy bastante orgulloso pues la tocamos 
con mi banda, suena muy bien y espero la 
disfruten


Esta cancion tiene dos partes y un bridge, 
esta parte es el intro y casi toda la parte 
de la cancion, 


G--2-5-----4---5-5----- 
D--------5------------- 
A----------------------
E----------------------

G--------2------------1-4—-
D---0--3----------2--------
A--------------------------
E--------------------------               
Antes de entrar a la Segunda parte tiene 
un bridge que va asi en la parte de la 
cancion que dice:
“ que si te engañan duele”

 
       ……… duele
G------2------------------------    
D-0--3---------2--6---9--7------        
A-------------------------------
E-------------------------------



Y la parte final es asi

G--------------------------------------      
D---7-5-3-2--6-7-----7-5-3-2--6-7------             
A--------------------------------------
E--------------------------------------



Y esto es todo, disfrutenla, y cualquier duda, 
escribanme!!! nos vemos



Keywords / Palabras clave: Llorarás, Oscar de León, letras, letra, acordes, canciones, cancion, grupo, banda, cantante, tablatura, partitura, tocar con guitarra, armónica, teclado, bajo, ejecutar, bajar, mp3, música, chords, lyrics, versión, cover, piano, acrodes, acordes de Llorarás, Oscar de León

Inicio | Artistas | Recursos | Buscar | AGREGA TU TABLATURA A 10ACORDES | Contacto

www.10acordes.com.ar - 2014© - 2014-04-17 04:54:49