letra, letras, acorde, acordes, tablatura, tablaturas, partitura, partituras de la canción Lo único que tengo de Victor Jara, 19318

Lo único que tengo de Victor Jara

Colaboración de Gustavo Parada (TAB)

(delirio_urbano @ hotmail.com)          (Visitas: 2210)

Ver Lo único que tengo de Victor Jara en vista para impresión



¿Dudas de cómo es un acorde? Visitar la página cómo formar acordes en guitarra

Oka, aquí les va otro de los temas con los que me siento 
plenamente identificado: LO UNICO QUE TENGO. 
Suerte!!!!!!!!!!!!!!!!!!!!!!!!!!


Intro:

     C#m                     B                      A
E||-----------------------|----------------------|----------------------|
B||--------9-----9-----9--|-------7-----7-----7--|-------5-----5-----5--|
G||------9-----9-------9--|-----8-----8-------8--|-----6-----6-------6--|
D||-----------------------|----------------------|----------------------|
A||-----------------------|----------------------|----------------------|
E||---9------9------9-----|--7------7------7-----|--5------5------5-----|

  G#m                    A                      G#m                    
----------------------|----------------------|-------------------0--| 
-------4-----4-----4--|-------5-----5-----5--|-------4-----4-----4--|
-----4-----4-------4--|-----6-----6-------6--|-----4-----4-------4--|
----------------------|----------------------|----------------------|
----------------------|----------------------|----------------------|
--4------4------4-----|--5------5------5-----|--4------4------4-----|

F#m7         G#m6
-------0-------0----|
-------0-------0----|
-------2----2--4----|
-----2------2--4----|
--------------------|
--------------------|
--2------2-----4----|

  E            B7/F#      E(* rasgueo )                         
-----------------------|------------0--0----|------------0--0----|
-------------------0---|------------0--0----|------------0--0----|
-------1-1--1------2---|-----1*--1--1--1----|-----1*--1--1--1----|
-----2---2--2----1---1-|-----2*--2--2--2----|-----2*--2--2--2----|
---------2--2----------|-----2*--2-----2----|-----2*--2-----2----|
--0------0-----2-------|--0------0-----0----|--0------0-----0----|
                   Fin Intro          Quién   me_i-ba_a de-cir a   
D6
-------2-----2------|
-------0-----0------|
-----2-----2--------|
--0------0----------|
--------------------|
--------------------|
 mí,            có - 

  B7                   E                    G                                         
-------2----2--2----|------------0--0----|-----------------------|
-------4----4--4----|------------0--0----|-----------------------|
-----2---2--2--2----|-----1*--1--1--1----|-------0----0----------|
---------4-----4----|-----2*--2--2--2----|-----0---0--0----0---0-|
--2------2-----2----|-----2*--2-----2----|---------2--2------2---|
--------------------|--0------0-----0----|--3------3-----3-------|
mo me_iba_a ima - gi - nar,          si     yo no ten-go_un lu -  

  E 
------------0--0----|
------------0--0----|
-----1*--1--1--1----|
-----2*--2--2--2----|
-----2*--2-----2----|
--0------0-----0----|
 gar,           si

  G                       A                    C            D7    
-----------------------|------------0--0----|---------------------|
-----------------------|-----2*-----2--2----|---------------------|
-------0----0----------|-----2*--2--2--2----|-------5----5-----5--|
-----0---0--0----0---0-|-----2*--2--2--2----|-----5------5-----7--|
---------2--2------2---|--0------0-----0----|--3------3-----5-----|
--3------3-----3-------|--------------------|---------------------|
  yo no ten-go_un lu -   gar,           si     yo no tengo_un lu - 

    G            B7/F#
---------------------|
------------------4--|
-------4----4-----2--|
-----5------5--------|
---------------------|
--3------3-----2-----|
 gar     en la    tie - 

  E                    F#                   C#m                  
------------0--0----|--------------------|-------4-----4-----4--|
-------0----0--0----|------------2--2----|-----5-----5-------5--|
-----1------1--1----|-------3----3--3----|----------------------|
---------2-----2----|-----4---4--4--4----|----------------------|
---------2-----2----|---------4-----4----|--4------4------4-----|
--0------0-----0----|--2------2-----2----|----------------------|
  rra.         Y mis manos son lo único que ten  -  go,    y mis 

  F#              
--------------------|
------------2--2----|
-------3----3--3----|
-----4---4--4--4----|
---------4-----4----|
--2------2-----2----|
manos son mi_amor y mi sus - 

  C#m                    A                    E            A     
-------4-----4-----4--|-------0----0--0----|------------0--0----|
-----5-----5-------5--|-----2------2--2----|-------0----0--2----|
----------------------|---------2--2--2----|-----1---1--1--2----|
----------------------|---------2-----2----|---------2-----2----|
--4------4------4-----|--0------0-----0----|---------2-----0----|
----------------------|--------------------|--0------0----------|
  ten - to,      y mis manos son lo único que ten - go son mi_a -

  G            B7/F#             E                   
---------------------|------------0--0-----||
-------0----0-----4--|-------0----0--0-----||
-----0------0-----2--|-----1------1--1-----||
---------------------|---------2--2--2-----||
---------------------|---------2-----2-----||
--3------3-----2-----|--0------0-----0-----||
 mor  y  mi  sus-ten - to.



Intro (con cambios en el arpegio)


     C#m                       B                         A
E||-------------------------|-------------------------|-------------------------|
B||------9-----9-------9----|------7-----7-------7----|------5-----5-------5----|
G||------9-----9-----9---9--|------8-----8-----8---8--|------6-----6-----6---6--|
D||-------------------------|-------------------------|-------------------------|
A||-------------------------|-------------------------|-------------------------|
E||---9------9-----9--------|---7-------7----7--------|---5------5-----5--------|


  G#m                        A                       G#m                     
-------------------------|-------------------------|-------------------0----|
------4-----4-------4----|------5-----5-------5----|-----4-----4-------4----|
------4-----4-----4---4--|------6-----6-----6---6--|-----4-----4-----4---4--|
-------------------------|-------------------------|------------------------|
-------------------------|-------------------------|------------------------|
---4------4-----4--------|---5------5-----5--------|--4------4-----4--------|


 F#m7         G#m6     E            B7/F#      
-------0-------0----|-----------------------|
-------2----2--4----|-------------------0---|
-----2------2--4----|-------1-1--1------2---|
--------------------|-----2---2--2----1---1-|
--------------------|---------2--2----------|
--2------2-----4----|--0------0-----2-------|
                   

No hay casa donde llegar,
mi paire y mi maire están
más lejos de este barrial
más lejos de este barrial
más lejos de este barrial
que una estrella.

Y mis manos son lo único que tengo
y mis manos son mi amor y mi sustento,
y mis manos son lo único que tengo,
son mi amor y mi sustento.

Intro (variante)

Quién me iba a decir a mí,
que yo me iba a enomorar,
cuando no tengo un lugar
cuando no tengo un lugar
cuando no tengo un lugar
en la tierra.

Y mis manos son lo único que tengo
y mis manos son mi amor y mi sustento,
y mis manos son lo único que tengo,
son mi amor y mi sustento.



Acordes:

    B7/F#  B7  B7/F#* F#m7 G#m6 C  D7
E||---2----2----2------0----0---3---5----|
B||---0----4----4------2----4---5---7----|
G||---2----2----2------2----4---5---5----|
D||---1----4----4------2----4---5---7----|
A||--------2--------------------3---5----|
E||---2----2----2------2----4---3---5----|



Keywords / Palabras clave: Lo único que tengo, Victor Jara, letras, letra, acordes, canciones, cancion, grupo, banda, cantante, tablatura, partitura, tocar con guitarra, armónica, teclado, bajo, ejecutar, bajar, mp3, música, chords, lyrics, versión, cover, piano, acrodes, acordes de Lo único que tengo, Victor Jara

Inicio | Artistas | Recursos | Buscar | AGREGA TU TABLATURA A 10ACORDES | Contacto

www.10acordes.com.ar - 2014© - 2014-04-21 06:48:56