letra, letras, acorde, acordes, tablatura, tablaturas, partitura, partituras de la canción Los rockeros van al infierno de Rata Blanca, 19643

Los rockeros van al infierno de Rata Blanca

Colaboración de Joel (TAB)

(sargento41 @ hotmail.com)          (Visitas: 3970)

Ver Los rockeros van al infierno de Rata Blanca en vista para impresión



¿Dudas de cómo es un acorde? Visitar la página cómo formar acordes en guitarra

Intro:

F5-G5                     Bb5
e|----------------------------------------------------|
B|----11b(13)---11--------------11b(13)---11----------|
G|-------------------12------------------------12-----|
D|----------------------------------------------------|
A|----------------------------------------------------|
E|----------------------------------------------------|

  F5                      G5
e|---------------------------------------------------------|
B|----11b(13)---11--------------11b(13)---11-------13b(15)-|
G|-------------------12------------------------12----------|
D|---------------------------------------------------------|
A|---------------------------------------------------------|
E|---------------------------------------------------------|

C5                    D#5
Se oye comentar a la gente del lugar
F5                        Riff1
los rockeros no son buenos

Si no te portas bien te hecharas pronto a perder
y caeras en el infierno

Riff 1
e|---------------------------------|
B|---------------------------------|
G|-0-3--0-3--0--0-3-0--0-3-5-3--0--|
D|-0-3--0-3--0--0-3-0--0-3-5-3--0--|
A|---------------------------------|
E|---------------------------------|

C5          F5        Bb5       C5
Si hace vivir al despadre del rock
C5/D#5-D5-C5 Bb5          C5
te    alcanzara  la perdicion
C5         Bb5        C5   C5/D#5-D5-C5-Bb5
Nunca tendras reputacion
         D5   F5
que mas da
mi rollo es el rock

================
Repetir Intro =
================

Va sin afeitar dice el sherif del lugar
y ademas con tias buenas
dicen que fumar es pecado y es mortal
y al infierno me condenan

Si es de escojer entre ellos y el rock
elegire mi perdicion
se que al final tendre razon
y ellos no
mi rollo es el rock

e|-----------------------------------------------------------------|
B|------------------5==----------3==-------------------------------|
G|------------------5==----------3==-----------2==-----------------|
D|------------------5==----------3==-----------3==-----------5==---|
A|---------------------------------------------3==-----------5==---|
E|---------3-3-3-3------3-3-3-3-------3-3-3-3-------3-3-3-3--------|
           . . . .      . . . .       . . . .       . . . .

Base del solo: C5-Bb5-F5-G5


Que risa me da esa falsa humanida
de los que se dicen buenos
no perdonaran mi pecado original
de ser joven y rockero

Si es de escojer entre ellos y el rock
eligire mi perdicion
se que al final tendre razon
y ellos no
mi rollo es el rock

=======================
Intro hasta el final =
=======================



Keywords / Palabras clave: Los rockeros van al infierno, Rata Blanca, letras, letra, acordes, canciones, cancion, grupo, banda, cantante, tablatura, partitura, tocar con guitarra, armónica, teclado, bajo, ejecutar, bajar, mp3, música, chords, lyrics, versión, cover, piano, acrodes, acordes de Los rockeros van al infierno, Rata Blanca

Inicio | Artistas | Recursos | Buscar | AGREGA TU TABLATURA A 10ACORDES | Contacto

www.10acordes.com.ar - 2014© - 2014-10-24 19:47:33