letra, letras, acorde, acordes, tablatura, tablaturas, partitura, partituras de la canción Luto en mi Alma de Terrícolas, 41934

Luto en mi Alma de Terrícolas

Colaboración de mmm bueno ya lo enviado en otro lugar pero bueno..... te amo (A) (TAB)

(max.tec92hotmail.com)          (Visitas: )

Ver Luto en mi Alma de Terrícolas en vista para impresión



¿Dudas de cómo es un acorde? Visitar la página cómo formar acordes en guitarra

    C                                 Am
E-0---------------------------------------------------------------------T
B-1--------------------1--------------1--------------1-------------3----e
G-0-----------------2--------------2--------------2-------------4-------c
D-2--------------3---------3----2---------2----3---------3---5--------5-o
A-3--3--2--1------------------------------------------------------------u
E-0---------------------------------------------------------------------2


      C
E-0-----------------------------------0---3---1------0-1---3-----------T
B-1---------1--0----------0--1--------1---5---3----3-----3-------------e
G-0-------0-------------0----------0-----------------------------------c
D-2-----2-------------2------------------------------------------------o
A-3--------------------------------------------------------------------u
E-0--------------------------------------------------------------------2


      C
E-------------------------0-----3------------------------T
B----------3--1-----1--3-----1---------------------------e
G----0--4------------------------------------------------c
D--------------------------------------------------------o
A--------------------------------------------------------u
E--------------------------------------------------------2



Keywords / Palabras clave: Luto en mi Alma, Terrícolas, letras, letra, acordes, canciones, cancion, grupo, banda, cantante, tablatura, partitura, tocar con guitarra, armónica, teclado, bajo, ejecutar, bajar, mp3, música, chords, lyrics, versión, cover, piano, acrodes, acordes de Luto en mi Alma, Terrícolas

Inicio | Artistas | Recursos | Buscar | AGREGA TU TABLATURA A 10ACORDES | Contacto

www.10acordes.com.ar - 2014© - 2014-12-18 17:41:12