letra, letras, acorde, acordes, tablatura, tablaturas, partitura, partituras de la canción Malagueña de los Panchos, 21787

Malagueña de los Panchos

Colaboración de José Antonio Zea Páez (TAB)

(jazp870622 @ hotmail.com)          (Visitas: 35276)

Ver Malagueña de los Panchos en vista para impresión



¿Dudas de cómo es un acorde? Visitar la página cómo formar acordes en guitarra

Requinto inicial

          E7\       E7\     E7\  golpe-ritmo Am
1------------------------------------------
2----------0---------0-------0-------------
3----1---1-----1---1----1---1---2-1-2------
4---2---2-----2---2----2---2---------------
                                 G7
1----------0--------0----------0------------
2-----1--1----1---1-----1----1----3-2-3-----
3----2--2----2--2-----2----2----------------
4-------------------------------------------
                                         C
1------------------------------------------------ 
2-----0----0--3---0---0--3---0----0--3----1--0--1
3---0----0------0---0------0----0---------------- 
4-------------------------------------------------
         F                                         E7
1--------0-------------------------0--1-0------------
2---1--3---3--1--0--------0--0-------------3--1--0---
3-------------------2--1-------1---------------------2
4---------------------------------2-------------------

se repite



Keywords / Palabras clave: Malagueña, los Panchos, letras, letra, acordes, canciones, cancion, grupo, banda, cantante, tablatura, partitura, tocar con guitarra, armónica, teclado, bajo, ejecutar, bajar, mp3, música, chords, lyrics, versión, cover, piano, acrodes, acordes de Malagueña, los Panchos

Inicio | Artistas | Recursos | Buscar | AGREGA TU TABLATURA A 10ACORDES | Contacto

www.10acordes.com.ar - 2014© - 2014-10-23 18:35:50