letra, letras, acorde, acordes, tablatura, tablaturas, partitura, partituras de la canción Malagueña de Paco de Lucía, 21780

Malagueña de Paco de Lucía

Colaboración de guayre (TAB)

(elgranguayre @ yahoo.es)          (Visitas: 58437)

Ver Malagueña de Paco de Lucía en vista para impresión



¿Dudas de cómo es un acorde? Visitar la página cómo formar acordes en guitarra

E||------------------------------------------------|
B||------------------------------------------------|
G||--------------------------------------------3-2-|
D||---------------------2-1-2--------------2-1-----|
A||-----------0-3-1-0-1-------0-1-0-3-1-0----------|
E||-0-1-3-1-0--------------------------------------|

|-0-4---0-4-----------3-1---0-4---0-4-----------3-1-|
|-----2-----2-0-3-2-0-----------2-----2-0-3-2-0-----|
|---------------------------------------------------|
|---------------------------------------------------|
|---------------------------------------------------|
|---------------------------------------------------|

Ahora en vez de apretar la ultima cuerda hacemos
el acorde señalado arriva
             Mi           Lam                         Mi
E||---------|-0-|--------|-0-|------------------------|-0-|
B||---------|-2-|--------|-0-|------------------------|-2-|
G||---------|-2-|--------|-2-|-----------------------3|-2-|
D||---------|-1-|--------|-2-|-2-1-2--------------2-1-|-1-|
A||---------|-0-|0-3-1-0-|-1-|-----0-1-0-3-1-0--------|-0-|
E||-0-1-3-1-|-0-|--------|-0-|------------------------|-0-|

ahora agregamos un toque al aire en la 1ª cuerda entre
el punteo

|-0-4---0-4-----------3-1---0-4---0-4-----------3-1--|
|-----2-----2-0-3-2-0-----------2-----2-0-3-2-0------|
|----------------------------------------------------|
|----------------------------------------------------|
|----------------------------------------------------|
|--0-0-0-0-0-0-0-0-0-0-0-0---0-0-0-0-0-0-0-0-0-0-0-0-|

capaz que no esta del todo perfecta y no esta entera porque
si la hubiera sacado entera estaria dando conciertos
espero que la puedan sacar, el secreto esta en la practica



Keywords / Palabras clave: Malagueña, Paco de Lucía, letras, letra, acordes, canciones, cancion, grupo, banda, cantante, tablatura, partitura, tocar con guitarra, armónica, teclado, bajo, ejecutar, bajar, mp3, música, chords, lyrics, versión, cover, piano, acrodes, acordes de Malagueña, Paco de Lucía

Inicio | Artistas | Recursos | Buscar | AGREGA TU TABLATURA A 10ACORDES | Contacto

www.10acordes.com.ar - 2014© - 2014-10-31 21:43:59