letra, letras, acorde, acordes, tablatura, tablaturas, partitura, partituras de la canción Maneras de vivir de Rosendo, 22020

Maneras de vivir de Rosendo

Colaboración de Bartolomé (TAB)

(bartolome.nicolas @ wanadoo.es)          (Visitas: 25052)

Ver Maneras de vivir de Rosendo en vista para impresión



¿Dudas de cómo es un acorde? Visitar la página cómo formar acordes en guitarra

Bueno pos aqui estoy otra vez con otra canción de
 Rosendo. Si no la he mandao antes es por que,incluso
 para mi, resulta bastante fácil. Ahi va:

Riff:
-------------------------------------
-------------------------------------
--0-9-7-0----------------------------
-------------------------------------
-------------------------------------
-------------------------------------

Mi*.       RE.             La.
No pienses que estoy muy triste
Riff
Mi*.  Re.        La.
Si no me ves sonreir
Riff
Mi*.  Re.         La.
Es simplemente despiste
Si             Mi*Mi*Mi*...
Maneras de vivir

Puente:
Mi*   Si       Re     La   
Voy cruzando el calendario
Mi*    Si  Re    La
Con igual velocidad
Mi*   Re    Re      La 
Subrayando en mi diario
Si           Mi*Mi*Mi*...
Muchas páginas...

*=se toca en la 5º cuerda
.=ritmo rock ( opcional )

Especie de solo: ( del que no estoy muy seguro )
----------------------------------------
----------------------------------------
---11-11--11--9-9-9&11&9-11-9-11--------
---11-11--11--9-9-9&11&9-11-9-11--------
---9---9---9--7-7-7&9-&7-9--7-9---------
----------------------------------------

A mi me suena bien, lo que no se es si lo habré 
transcrito bien, si alguien lo tiene de otra manera
no dude en decirmelo.



Keywords / Palabras clave: Maneras de vivir, Rosendo, letras, letra, acordes, canciones, cancion, grupo, banda, cantante, tablatura, partitura, tocar con guitarra, armónica, teclado, bajo, ejecutar, bajar, mp3, música, chords, lyrics, versión, cover, piano, acrodes, acordes de Maneras de vivir, Rosendo

Inicio | Artistas | Recursos | Buscar | AGREGA TU TABLATURA A 10ACORDES | Contacto

www.10acordes.com.ar - 2014© - 2014-10-25 04:23:50