letra, letras, acorde, acordes, tablatura, tablaturas, partitura, partituras de la canción Maravillosa esta noche de Jaf, 22157

Maravillosa esta noche de Jaf

Colaboración de Carlos Ariel Gómez Ardiles (TAB)

(webmaster @ arielgomez.com.ar)          (Visitas: 16422)

Ver Maravillosa esta noche de Jaf en vista para impresión



¿Dudas de cómo es un acorde? Visitar la página cómo formar acordes en guitarra

INTRO


     G      D       C      D
e  |-3-5-3-5--3-5-3-----5---3-5-------------|
B  |----------------5-----------------------|
G  |----------------------------------------|


     G      D       C    D          G
e  |--3-5-3-5-3-5-3---5-3-5-7-8-12-10-------|
B  |----------------5-----------------------|
G  |----------------------------------------|


1)

G             D      C             D
Es tarde a la noche,   ella busca que vestir
G            D     C            D
despues se maquilla, y peina su largo pelo 
C        D    G    D/F#   Em    Em/D
 y me pregunta ¿me veo   bien?
        C         D           G
le digo si, estas maravillosa hoy.

     G      D       C    D          G
e  |--3-5-3-5-3-5-3---5-3-5-7-8-12-10-------|
B  |----------------5-----------------------|
G  |----------------------------------------|


1)
Vamos a la fiesta, y todos giran para ver
a esta hermosa dama, que camina junto a mi
y me pregunta ¿te sientes bien?
le digo si, estoy maravilloso hoy.

   
e  |---0--3-5-7-10-10---5--3----------------|
B  |-3--------------------------------------|
G  |----------------------------------------|


        C               D       G          
Me siento muy bien pues veo el amor 

        D/F#  Em    Em/D
en tus ojos  hoy

     C             D
y lo grande,  lo mejor
        C            D
es que aun no se da cuenta
          G
cuanto la amo.

     G      D       C    D          G
e  |----5-3-5-3-5-3---5-3-5-7-8-12-10-------| REPETIR
B  |----------------5-----------------------| 2 veces
G  |----------------------------------------|


1)
Tiempo del retorno, finjo molestar, le doy 
las llaves del auto, me ayuda a ir a la cama
y entonces digo, mientras apago la luz
digo querida, estas maravillosa hoy.

e  |-5----5--3-0----------------------------|
B  |-------------3--------------------------|
G  |----------------------------------------|

        C                D          G
Oh, my darling, you are wonderful tonight. 


          D          C              D       
e  |-5--3-5---5-7-10-5--3-0-5---10-10-------|
B  |----------------------------------------|
G  |----------------------------------------|

    G       D       C      C      D     G       
e  |----5-3-5-3-5-3---5-3-|5---7--8---12-10--|     
B  |----------------5-----|------------------|
G  |----------------------|------------------|
                          |Wonderful tonight. 



*** Hecho por Carlos Ariel Gómez Ardiles (Pacha) ***



Keywords / Palabras clave: Maravillosa esta noche, Jaf, letras, letra, acordes, canciones, cancion, grupo, banda, cantante, tablatura, partitura, tocar con guitarra, armónica, teclado, bajo, ejecutar, bajar, mp3, música, chords, lyrics, versión, cover, piano, acrodes, acordes de Maravillosa esta noche, Jaf

Inicio | Artistas | Recursos | Buscar | AGREGA TU TABLATURA A 10ACORDES | Contacto

www.10acordes.com.ar - 2014© - 2014-10-24 04:24:17