letra, letras, acorde, acordes, tablatura, tablaturas, partitura, partituras de la canción Maravillosa esta noche de Jaf, 22159

Maravillosa esta noche de Jaf

Colaboración de Federico Gayarre (TAB)

(fedegayarre @ yahoo.com.ar)          (Visitas: 7446)

Ver Maravillosa esta noche de Jaf en vista para impresión



¿Dudas de cómo es un acorde? Visitar la página cómo formar acordes en guitarra

Aca les paso mi version de este gran tema, si tienen alguna
sugerencia o comentario, envienmela  
      
     
INTRO (se repite 2 veces)

 E |---------------------------------------------------------|
 B |---------------------------------------------------------|
 G |--12~-12-14/15\14-14-12-14--12-14/15\14-14-12------------|
 D |----------------------------------------------14---------|
 A |---------------------------------------------------------|
 E |---------------------------------------------------------|

   
 E |---------------------------------------------------------|
 B |---------------------------------------------------------|
 G |------12-14/15\14-14-12-14----------12~------------------|
 D |---------------------------14-14-14----------------------|
 A |---------------------------------------------------------|
 E |---------------------------------------------------------|



1)
Es tarde a la noche,ella busca que vestir
despues se maquilla, y peina su largo pelo 
y me pregunta ¿me veo   bien?
le digo si, estas maravillosa hoy.
 
 E |---------------------------------------------------------|
 B |---------------------------------------------------------|
 G |--12~-12-14/15\14-14-12-14--12-14/15\14-14-12------------|
 D |----------------------------------------------14---------|
 A |---------------------------------------------------------|
 E |---------------------------------------------------------|

   
 E |---------------------------------------------------------|
 B |---------------------------------------------------------|
 G |------12-14/15\14-14-12-14----------12^14^12~------------|
 D |---------------------------14-14-14----------------------|
 A |---------------------------------------------------------|
 E |---------------------------------------------------------|

2)
Vamos a la fiesta, y todos giran para ver

E |----------------------------------------------------------|
B |------12~~~~~~--------------------------------------------|

a esta hermosa dama, que camina junto a mi
y me pregunta ¿te sientes bien?
le digo si, estoy maravilloso hoy.

 E |---------------------------------------------------------|
 B |-----14-13-12-12-14-13-12--------------------------------|
 G |----------------------------14-13-12-11-11~--------------|
 D |---------------------------------------------------------|
 A |---------------------------------------------------------|
 E |---------------------------------------------------------|

3)
Me siento muy bien pues veo el amor 
en tus ojos  hoy
y lo grande,  lo mejor
es que aun no se da cuenta
cuanto la amo.

SOLO (suena...pero hay que escuchar el tema para tocarlo)

 E |---------------------------------------------------------|
 B |---------------------------------------------------------|
 G |-----12-14/15~~-15~14-13---------------------------------|
 D |-------------------------14-13-------15------------------|
 A |-------------------------------13-14---------------------|
 E |---------------------------------------------------------|

 E |---------------------------------------------------------|
 B |---------15~-15-13---------------------------------------|
 G |---------14~-------14-13-12-------14-12-------14~~~------|
 D |-----14~--------------------13-12-------13-12------------|
 A |---------------------------------------------------------|
 E |---------------------------------------------------------|

4)
Tiempo del retorno, finjo molestar, le doy 
las llaves del auto, me ayuda a ir a la cama
y entonces digo, mientras apago la luz
digo querida, estas maravillosa hoy.
 
 E |---------------------------------------------------------|
 B |---------------------------------------------------------|
 G |--12~-12-14/15\14-15~-16~-17-17-17~-16~-15~--------------|
 D |---------------------------------------------------------|
 A |---------------------------------------------------------|
 E |---------------------------------------------------------|
Oh, my darling, you are wonderful tonight. 
                          |Wonderful tonight. 

Termina con la intro



Keywords / Palabras clave: Maravillosa esta noche, Jaf, letras, letra, acordes, canciones, cancion, grupo, banda, cantante, tablatura, partitura, tocar con guitarra, armónica, teclado, bajo, ejecutar, bajar, mp3, música, chords, lyrics, versión, cover, piano, acrodes, acordes de Maravillosa esta noche, Jaf

Inicio | Artistas | Recursos | Buscar | AGREGA TU TABLATURA A 10ACORDES | Contacto

www.10acordes.com.ar - 2014© - 2014-09-30 12:31:20