letra, letras, acorde, acordes, tablatura, tablaturas, partitura, partituras de la canción marcha turca (chavo del 8) de musica clasica, 42442

marcha turca (chavo del 8) de musica clasica

Colaboración de aqui esta la verdadera del chavo (TAB)

(carlosmariogomez.gomezacosta6 @ gmail.com)          (Visitas: )

Ver marcha turca (chavo del 8) de musica clasica en vista para impresión



¿Dudas de cómo es un acorde? Visitar la página cómo formar acordes en guitarra

Marcha truca (chavo del ocho)
E|------------------------------------------------
B|-------------------3--1---------------------------
G|-------------------------3-2-0-----------------
D|-3-0-0-0---3-0-0-----------------3-1-0-------------
A|------------------------------------------------
E|------------------------------------------------

E|------------------------------------------------
B|-------------------3--1---------------------------
G|-------------------------3-2-0-----------------
D|-3-0-0-0---3-0-0-----------------3-4-5-----------
A|------------------------------------------------
E|------------------------------------------------

E|------------------------------------------------
B|-----------1---1-----3---3------------------------
G|--3-0-0------2---2-----3---3------------------------
D|-------------------------------------------------
A|------------------------------------------------
E|------------------------------------------------

E|------------------------------------------------
B|-------------------3--1---------------------------
G|-------------------------3-2-0-----2-3-----------
D|-3-0-0-0---3-0-0-----------------3---------------
A|------------------------------------------------
E|------------------------------------------------



Keywords / Palabras clave: marcha turca (chavo del 8), musica clasica, letras, letra, acordes, canciones, cancion, grupo, banda, cantante, tablatura, partitura, tocar con guitarra, armónica, teclado, bajo, ejecutar, bajar, mp3, música, chords, lyrics, versión, cover, piano, acrodes, acordes de marcha turca (chavo del 8), musica clasica

Inicio | Artistas | Recursos | Buscar | AGREGA TU TABLATURA A 10ACORDES | Contacto

www.10acordes.com.ar - 2014© - 2014-11-01 06:19:31