letra, letras, acorde, acordes, tablatura, tablaturas, partitura, partituras de la canción Me Gustas Mucho de viejas locas, 22820

Me Gustas Mucho de viejas locas

Colaboración de Kronoman (TAB)

(kronoman @ baservices.com.ar)          (Visitas: 29862)

Ver Me Gustas Mucho de viejas locas en vista para impresión



¿Dudas de cómo es un acorde? Visitar la página cómo formar acordes en guitarra

Tablatura por Kronoman.
Dediquenle esta cancion a su nena favorita!

** Visita mi sitio: **
** http://kronoman.8k.com/ **

** Contacto email: nacional@kronoman.8k.com **
** Contactenme si encuentran errores **

Referencia:  H - hammer-on
             / - slide
             P - pull-off
             ^ - half bend
            ^^ - full bend
             ~ - vibrato
       
Ritmos para cada acorde

Acorde de E (darle el ritmo asordinando con la palma derecha, al estilo blues)
1 ------------------------------------------- [este ritmo es el principal,
2 -------------------------------------------  hace un peque¤o riff
3 -------------------------------------------  con hammer-on cuando el batero
4 -------------------------------------------  hace el redoble]
5 -2-2-4-2--2-2-4-2--2-2-4-2--2-2------------  [en el estribillo, el riff
6 -0-0-0-0--0-0-0-0--0-0-0-0--0-0-0-H-3-H-4--  NO se hace, lo toca como A o B]
                                  <  riff >

Acorde de A (darle el ritmo asordinando con la palma derecha, al estilo blues)
1 ------------------
2 ------------------ [este ritmo es un loop, repite hasta el paso de acorde]
3 ------------------
4 -2-2-4-2--2-2-4-2-
5 -0-0-0-0--0-0-0-0-
6 ------------------

Acorde de B (darle el ritmo asordinando con la palma derecha, al estilo blues)
1 ------------------
2 ------------------ [este ritmo es un loop, repite hasta el paso de acorde]
3 ------------------
4 -4-4-6-4--4-4-6-4-
5 -2-2-2-2--2-2-2-2-
6 ------------------

INTRO de punteo [en realidad, es armonica y guitarra combinados, hice lo
mejor que pude para juntarlos]
La 2nda guitarra entra tocando el ritmo de E, hacen el punteo, un redoble,
y empiezan a cantar.
** Nota 1: la nota pedal tocando el E al aire en la 1era es opcional, es solo
para que no les quede "pelado" si lo hacen con 1 sola guitarra **

(este es el punteito de la guitarra, entra despues del redoble, y en algunas
partes de la cancion, en realidad, como son 2 guitarras, esta constantemente
haciendo rellenos cortitos como este, son medio bluseros, asique pueden
improvisar usando la escala de blues si tienen alguien que los acompa¤e con
el ritmo)

RIFF DE GUITARRA
1 0-0-0--0--0--0--0------------- <-esta es la nota"pedal" opcional
2 3/5-5^-5^-5^-5^-5^--3 H 5 P 3- 
3 ------------------------------
4 ------------------------------
5 ------------------------------
6 ------------------------------

[dejan pasar otro redoble y empieza la armonica]

RIFF DE ARMONICA
1 -10/12~--10-12---------------------------------------------
2 -----------------{ 10 H 12 P 10 }-{7 H 9 P 7} {5 H 7 P 5} - 
3 ----------------------------------------------------------- 
4 ----------------------------------------------------------- 
5 ----------------------------------------------------------- 
6 -----------------------------------------------------------
Los trozos entre corchetes se repiten 5 o 6 veces muy rapido (casi tapping)
cada uno, bajando por la escala hasta que llega al ultimo, y queda sosteniendo
la nota, y empieza a cantar con el ritmo de E.

INTERMEDIO (son bajadas por escala mayor al acorde, el tema original
            es un poco diferente)
  B 
1 --------------------------
2 --------------------------
3 --------------------------
4 --------------------------
5 -2-2-2~ 2/9~--9-7-6-4-6-2~
6 --------------------------

  A 
1 --------------------------
2 --------------------------
3 --------------------------
4 --------------------------
5 -0-0-0~ 0/7~--7-5-4-2-4-0~
6 --------------------------

Vuelve a hacer B 2 veces, hace A 2 veces mas, una B
y empieza a cantar de vuelta en E


FINAL (Este punteo lo invente yo, porque el original es con armonica)

1 -------------------------------------------
2 -------------------------------------------
3 -------------------------------------------
4 -------------------------------------------
5 -7-7-6-6-5-5-4-4-3-------5-6-7--{ 5H7P5 }-- <- repetir lo de {} muchas veces 
6 -------------------5-6-7-------------------    casi tapping, con fadeout
                                                 y un buen redoble de bateria

** IMPORTANTE **
La [x] significa silencio, la bateria hace un redoble, la banda deja de tocar,
y el cantante canta a capella.


Letra:

INTRO:
acompa¤amiento de E
toca RIFF DE GUITARRA, RIFF DE ARMONICA y empieza

E
Nos conocimos bailando en un bar
tus piernas volaban, las sabia llevar
a mi me gustaba como las movias
[x]
y juntos nos fuimos a pernoctar <- [ "procrear" queda mejor ;) ] 
[x]                A
que me gustas mucho
            E
me gustas mucho
           A
me gustas mucho
            E
me gustas mucho

B - A - E <- aca va el  RIFF DE ARMONICA

E
me gusta como te vestis y como andas
me gusta tu pelo tu cuerpo
me gustaria poderte bañar
[x]
tambien secarte y volverte a enjuagar
[x]                        A
porque... me gustas mucho
              E
me gustas mucho nena
             A
me gustas mucho
            E
me gustas mucho nena
                    B
sera que me gustas tanto
                            A
debe ser, no puedo disimular

de veras

B > A > E  <- Aca va el INTERMEDIO

               A
me gustas mucho
              E
me gustas mucho nena
              A
sera que me gustas tanto pero tanto
              E
me gustas mucho nena
                    B             A
y porque me gustas tanto debe ser
                       E
que nunca te voy a olvidar

FINAL



By Kronoman
URL:  http://kronoman.8k.com/
MAIL: nacional@kronoman.8k.com



Keywords / Palabras clave: Me Gustas Mucho, viejas locas, letras, letra, acordes, canciones, cancion, grupo, banda, cantante, tablatura, partitura, tocar con guitarra, armónica, teclado, bajo, ejecutar, bajar, mp3, música, chords, lyrics, versión, cover, piano, acrodes, acordes de Me Gustas Mucho, viejas locas

Inicio | Artistas | Recursos | Buscar | AGREGA TU TABLATURA A 10ACORDES | Contacto

www.10acordes.com.ar - 2014© - 2014-04-16 01:40:41