letra, letras, acorde, acordes, tablatura, tablaturas, partitura, partituras de la canción Milonga del Peón de Campo de Atahualpa Yupanqui, 20574

Milonga del Peón de Campo de Atahualpa Yupanqui

Colaboración de Juan Sebastián Kopaitich (TAB)

(juansek19 @ hotmail.com)          (Visitas: 28870)

Ver Milonga del Peón de Campo de Atahualpa Yupanqui en vista para impresión



¿Dudas de cómo es un acorde? Visitar la página cómo formar acordes en guitarra

Introduccion
 

e -----5------7-----5------5------7------5---------------------------| 
B -------7------7------------7------7--------------------------------|
G ---------7------7----0-------7------7------------------------------|
D ---0---------------------------------------------------------------|
A -------------------------------------------------------------------|
E -------------------------------------------------------------------|


e -----5------7------5-----5------7------5---------------------------|
B -------5------5------------5------5--------------------------------|
G ---------6------6-----0------6------6------------------------------|
D -------------------------------------------------------------------|
A --0----------------------------------------------------------------|
E -------------------------------------------------------------------|


e ----10--------12------10----10------12------10---------------------|
B -------10-------10------------10------10---------------------------| 
G ----------11------11------------11------11-------------------------|
D --0----------------------0-----------------------------------------|
A -------------------------------------------------------------------|
E -------------------------------------------------------------------|


e ----------5--------3---------2-------0-----------2-----------------|
B --------5--------3---------2-------2------3------------3-----------|
G ------6--------4---------2-------2--------2----2---2---2-----------|
D ------------------------------------------0------------0-----------|
A --0---------0--------0--------0------------------------------------|
E -------------------------------------------------------------------|



Consejo: Al ser una milonga Campera el arpegiado es a la inversa,es decir,
empezando por las cuerdad mas agudas. El D tambien se puede ir alternando con D9.
----------------------------------------------------------------------

D                A7                            D
Yo nunca tuve tropilla,siempre he montao en ajeno,

                       A7                       D
tuve un zaino que de bueno ni pisaba la gramilla

                   A7                            D
Llevo una vida sencilla,como es la del pobre peon

                      A7                           D
Madrugon tras madrugon con lluvia, escarcha o pampero

D7                    G       F              A7    D
a veces me duelen fiero ,los higados y el riñon.


-----------------Introduccion-------------------------------
 
D                          A7                     D
Soy peon de la estancia vieja ,partido de Madalena

                         A7                       D
y aunque no valga la pena anote que no son quejas 

                     A7                              D
un porton lleno de rejas y alla en el fondo un chalet
 
                     A7                         D
lo recibira un ballet que anda siempre difrazao

D7                  G        F          A7    D 
mas no se asuste cuñao y por mi preguntele.

----------------Introduccion------------------------------------- 

D                  A7                        D
Ni se le ocurra avisar que viene pa visitarme 

                    A7                              D
diga que viene a cobrarme y lo han de dejar dentrar 

                  A7                        D
alli le van a indicar que siga los ucalitos

                      A7                            D
al final esta un ranchito que han levantao estas manos

D7                 G          F              A7   D  
esa es mi casa paisano y ahi puede pegar el grito.



                 A7                             D
Alli le voy a mostrar mi mancarron,mis 2 perros 

                   A7                           D
unas espuelas de fierro y un monton de cosas mas 

                   A7                      D                      A7                      D
si es entendido vera un pocho de fina trama y el retrato de mi mama que es ande rezo pensando 

D7                    G         F             A7   D
mientras lo voy adornando con florcitas de retama.




                      A7                          D
Que puede ofertar un peon que no sean sus pobrezas  
                
                    A7                         D
a veces me entra tristeza otras veces rebelion  

                  A7                         D
en mas de una ocasion quisiera hacerme perdiz

                    A7                     D
Para ver de ser feliz en algun pago lejano

D7                G        F               A7  D
pero la verda paisano me gusta el aire de aqui.




Agradecimientos: 
                A mi viejo,la guitarra y por supuesto a Don Ata. 
                                                                 Juanse



Keywords / Palabras clave: Milonga del Peón de Campo, Atahualpa Yupanqui, letras, letra, acordes, canciones, cancion, grupo, banda, cantante, tablatura, partitura, tocar con guitarra, armónica, teclado, bajo, ejecutar, bajar, mp3, música, chords, lyrics, versión, cover, piano, acrodes, acordes de Milonga del Peón de Campo, Atahualpa Yupanqui

Inicio | Artistas | Recursos | Buscar | AGREGA TU TABLATURA A 10ACORDES | Contacto

www.10acordes.com.ar - 2014© - 2014-10-31 08:03:11