letra, letras, acorde, acordes, tablatura, tablaturas, partitura, partituras de la canción Mujer Amante de Rata Blanca, 21394

Mujer Amante de Rata Blanca

Colaboración de Jhon Alexander Latorre (TAB)

(soloheavy @ hotmail.com)          (Visitas: 4130)

Ver Mujer Amante de Rata Blanca en vista para impresión



¿Dudas de cómo es un acorde? Visitar la página cómo formar acordes en guitarra

HoLa aMiGoS dE aTaMe. 

Esta es la mejor tablatura de este disco.

SePaRe El SoLo PoR tIeMpOs Con Este SiMboLo: |

SÍMBOLOS:

^: Esto significa que en el traste que pisas por ejemplo como aparece al principio  
   de la tablatura en el traste (7^) jalas en el mismo tono la cuerda hacia arriba 


                            <<***InTRO*>>>>>>>>>>>
G Em Bm G D

<<(este es el pedazo que va con distorsión antes de empezar el arpegio)>>.
---------------------|---<<----
---------------------|----->>--
---------------------|---<<----
--4-4-5-4-4/5^--4----|----->>--
--2-2-3-2-2/3^--2----|---<<----
---------------------|----->>--


<<<Las notas (la) y (Sol) son con cejilla, y (Sim) (Re) (Mi) (Fa#) son normales.>>

<<<Donde dice (acompañamiento) es que el acompañamiento va haciendo un rasgueo 
suave con las mismas notas.>>>

                           I ESTROFA

Siento el calor en toda tu piel | en mi cuerpo otra ves
            (Sim)                              (La) 
----------2---------------------|------------5----------------------|---
------3-----------------3-------|--------5-----------------------5--|---
----4---4-----------4-----------|------6---6-----------------6------|---
--4---------------4---4---------|---7----------------------7---7----|---
----------------2---------------|------------------------7----------|---
--------------------------------|-----------------------------------|---

Estrella fugas | que enciende mi sed | en mi cuerpo otra vez |
 (Sim)               (Sol)                 (Re)                 (La) 
----------2----|-----------3---------|-----------2-----------|-------------|---
------3--------|-------3-------------|-------3---------------|----------5--|---
----4---4------|-----4---4-----------|-----2---2-------------|------6------|---
--4------------|---5-----------------|---0-------------------|----7---7----|---
---------------|---------------------|-----------------------|--7----------|---
---------------1---------------------|-----------------------|-------------|---

Por tu amor sensual     | cuanto me das 
        (Sol)                      (Sim)                    (acompañamiento) 
----------3-------------|----------2--------------|---
------3--------------3--|------3---------------3--|---
----4---4--------4------|----4---4---------4------|---
--5------------5---5----|--4-------------4---4----|---
-------------5----------|--------------2----------|---
------------------------|-------------------------|---

Has que mi sueño |  sea        |  una verdad 
    (La)             (Mi)          (Re)                     (acompañamiento) 
----------5------|----------0--|----------2--------------|---
------5----------|------0------|------3---------------3--|---
----6---6--------|----0---0----|----2---2---------2------|---
--7--------------|--2----------|--0-------------0---0----|---
-----------------|-------------|--------------0----------|---
-----------------|-------------1-------------------------|---

Dame tu alma hoy        | hacia el ritual 
        (Sol                        (Sim)                   (acompañamiento) 
----------3-------------|----------2--------------|---
------3--------------3--|------3---------------3--|---
----4---4--------4------|----4---4---------4------|---
--5------------5---5----|--4-------------4---4----|---
-------------5----------|--------------2----------|---
------------------------|-------------------------|---

Lleva me al mundo | donde      | pueda soñar 
        (La)          (Mi)          (Fa#)                   (acompañamiento) 
-----------5------|----------0-|-----------------------|---
-------5----------|------0-----|----------2--2/3--5/8--|---
-----6---6--------|----0---0---|------3----------------|---
---7--------------|--2---------|----4---4--------------|---
------------------|------------|--4--------------------|---
------------------|------------|-----------------------|---

<<***CoRO*>>>>>>>>

Uh, debo saber si es verdad, en algún lado estas
     Bm            D           A           Bm

----------2-|----------3--|----------5-|-------------|---
------3-----|------3------|------5-----|----------3--|---
----4---4---|----2---4----|----6---6---|------4------|---
--4---------|--0----------|--7---------|----4---4----|---
------------|-------------|------------|--2----------|---
------------|-------------|------------|-------------|---
<<<este arpegio es lo mismo para el resto del coro>>>

Bm           D         A       Bm
Voy a buscar una señal, una canción
Bm  D                A                Bm
Uh, debo saber si es verdad, en algún lado estas
Bm           D           A          G A G   Em
Solo el amor que tu me das me ayudara

                             II ESTROFA

Al amanecer tu imagen se va     | misteriosa mujer 
             (Bm)                                (Sol) 
----------2---------------------|------------3----------------------|---
------3-----------------3-------|--------3-----------------------3--|---
----4---4-----------4-----------|------4---4-----------------4------|---
--4---------------4---4---------|---5----------------------5---4----|---
----------------2---------------|------------------------5----------|---
--------------------------------|-----------------------------------|---


Dejaste en mi  | lujuria total        | hermosa y sensual |
(Bm)                   (Sol)               (Re)                 (La) 
----------2----|-----------3---------|-----------2-------|-------------|---
------3--------|-------3-------------|-------3-----------|----------5--|---
----4---4------|-----4---4-----------|-----2---2---------|------6------|---
--4------------|---5-----------------|---0---------------|----7---7----|---
---------------|---------------------|-------------------|--7----------|---
---------------1---------------------|-------------------|-------------|---

Corazón sin Dios        | dame un lugar 
(Sol)                     (Bm)                             (acompañamiento) 
----------3-------------|----------2--------------|---
------3--------------3--|------3---------------3--|---
----4---4--------4------|----4---4---------4------|---
--5------------5---5----|--4-------------4---4----|---
-------------5----------|--------------2----------|---
------------------------|-------------------------|---

En ese mundo     | tibio       | casi real 
         (La)         (Mi)           (Re)                  (acompañamiento) 
----------5------|----------0--|----------2--------------|---
------5----------|------0------|------3---------------3--|---
----6---6--------|----0---0----|----2---2---------2------|---
--7--------------|--2----------|--0-------------0---0----|---
-----------------|-------------|--------------0----------|---
-----------------|-------------1-------------------------|---

Te veré buscar          |   Una señal 
     (Sol)                      (Bm)                       (acompañamiento) 
----------3-------------|----------2--------------|---
------3--------------3--|------3---------------3--|---
----4---4--------4------|----4---4---------4------|---
--5------------5---5----|--4-------------4---4----|---
-------------5----------|--------------2----------|---
------------------------|-------------------------|---

En aquel camino  | por el que vas 
     (La)            (Mi)            (Fa#)                 (acompañamiento)
-----------5-----|----------0-|-----------------------|---
-------5---------|------0-----|----------2--2/3--5/8--|---
-----6---6-------|----0---0---|------3----------------|---
---7-------------|--2---------|----4---4--------------|---
-----------------|------------|--4--------------------|---
-----------------|------------|-----------------------|---

CORO.
                           <<***SoLO*>>>>>>>>


-5/7^--7-7-7--5-----------|-14^--12-11-10/9----|-10-11-10------------------------
----------------8-7-7h8-5-|-----------------12-|----------14-15-14--12/15--15-15-
--------------------------|--------------------|---------------------------------
--------------------------|--------------------|---------------------------------
--------------------------|--------------------|---------------------------------
--------------------------|--------------------|---------------------------------



-------------------------------------------------------|--14-15--14-15--14-16--
-14/16-16-16----10h12-10-10--9h11-9-9--8h10p8^--8/7/8--|-----------------------
-------------------------------------------------------|-----------------------
-------------------------------------------------------|-----------------------
-------------------------------------------------------|-----------------------
-------------------------------------------------------|-----------------------



-16/18^-19--18-18-18/19^-19--18-18-18/19^-19-20-21-20-19-18Z--|--17-18-19--
--------------------------------------------------------------|------------
--------------------------------------------------------------|------------
--------------------------------------------------------------|------------
--------------------------------------------------------------|------------
--------------------------------------------------------------|------------


-19/20^-20-17-18/19-|-17/18-19--18-19--18-19--18-19--18-19/21--21x5)-19z/16--|<
--------------------|--------------------------------------------------------|<
--------------------|--------------------------------------------------------|<
--------------------|--------------------------------------------------------|<
--------------------|--------------------------------------------------------|<
--------------------|--------------------------------------------------------|<
                    21x5): significa que tocas 5 veces en el traste 21 
                     19z : significa que tocas el traste 19 y hundís el trémulo  
 
                            III ESTROFA

Tu presencia marco en mi vida el amor, lo se

(Sol)                              (Bm) 
----------3------------------|----------2--------------|---
------3--------------3-------|------3---------------3--|---
----4---4--------4-----------|----4---4---------4------|---
--5------------5---5---------|--4-------------4---4----|---
-------------5---------------|--------------2----------|---
-----------------------------|-------------------------|---
<<<este pedazo de (Sol) lo hace el piano>>>


Es difícil pensar, el vivir ya sin vos.

(La)                                    (Re)
-----------5----------------------|----------2---2--|---
-------5----------------5---------|------3-------3--|---
-----6---6---------6--------------|----2---2-----2--|---
---7-------------7---7------------|--0-----------0--|---
---------------7------------------|-----------------|---
----------------------------------|-----------------|---

Corazón sin Dios        | dame un lugar 
(Sol)                               (Bm) 
----------3-------------|----------2--------------|---
------3--------------3--|------3---------------3--|---
----4---4--------4------|----4---4---------4------|---
--5------------5---5----|--4-------------4---4----|---
-------------5----------|--------------2----------|---
------------------------|-------------------------|---

En ese mundo     | tibio       | casi real 
    (La)               (Mi)            (Fa#) 
----------5------|----------0--|-------------2----------|---
------5----------|------0------|----------2--2----------|---
----6---6--------|----0---0----|------3------3----------|---
--7--------------|--2----------|----4---4----4----------|---
-----------------|-------------|--4----------4----------|---
-----------------|-------------|-------------2----------|---


<<*FiNAL***>>>>>>>>>>>


--5-6--6/7--7-7-7-7--5----------------|------------------------|---
-----------------------8-7-7h8--7h6h7-|--12-13-14-14-12-13/14--|---
--------------------------------------|------------------------|---
--------------------------------------|------------------------|---
--------------------------------------|------------------------|---
--------------------------------------|------------------------|---


--------------------|---<<---
--9/11-12-11--------|--->>---
--------------------|---<<---
--------------14/2--|--->>---
--------------14/2--|---<<---

bueno... hay le di un pedazo del comienzo del final pues no puede sacarlo todo
pues lo que seguía eran puras escalas ni la mas hijueput... es que ni Jimi Hendrix
ni Richie Sambora, Ni el guitarrista de Iron Maiden las saca a oído.


<<*Bueno... Soy de Cali Colombia y si tienen alguna duda o sugerencia o 
agradecimiento me escriben a mi correo que aparece arriba en colaboración.***>>>>>



Keywords / Palabras clave: Mujer Amante, Rata Blanca, letras, letra, acordes, canciones, cancion, grupo, banda, cantante, tablatura, partitura, tocar con guitarra, armónica, teclado, bajo, ejecutar, bajar, mp3, música, chords, lyrics, versión, cover, piano, acrodes, acordes de Mujer Amante, Rata Blanca

Inicio | Artistas | Recursos | Buscar | AGREGA TU TABLATURA A 10ACORDES | Contacto

www.10acordes.com.ar - 2014© - 2014-10-24 21:17:39