letra, letras, acorde, acordes, tablatura, tablaturas, partitura, partituras de la canción Mujeres Divinas de Vicente Fernandez, 21383

Mujeres Divinas de Vicente Fernandez

Colaboración de Mario Alberto Santillana (TAB)

(msantillana @ tec.com.mx)          (Visitas: 62255)

Ver Mujeres Divinas de Vicente Fernandez en vista para impresión



¿Dudas de cómo es un acorde? Visitar la página cómo formar acordes en guitarra

   (cuerdas)     (requinto)
e----3----2---0-|--2-2--4-4--2-2--0-0--------|
B----5----3---1-|--3-3--5-5--3-3--1-1--3-----|
G---------------|----------------------4-----|
D---------------|----------------------------|

e----3----5---/7--| 
B----5----6---/8--| 
G-----------------| 
D-----------------| 

   (cuerdas)     (requinto)
e----3----2---0-|--7-7--7/9---9--7-7--5-5--3-|
B----5----3---1-|--8-8--8/10-10--8-8--7-7--4-|
G---------------|----------------------------|
D---------------|----------------------------|

e----2----4---/5--| 
B----3----5---/6--| 
G-----------------| 

   (cuerdas y vientos) 
e----5/7-7--7-7--7-7--7-7--7-7--7-5-7----|
B----7---7--7-7--7-7--7-7--7-7--7-7-7-7--|
G-------------------------------------8--|

                     C  D  Em  
e----7-5----------------------|
B--------7-5---------5--7--8--|
G------------6-4-----5--7--9--| 

(requinto)     Em
e----9-7-9-7---0----|
B------------8------|
G-------------------|
   Em
Hablando
      E7          Am
de mujeres y traiciones
     D7
se fueron consumiendo
       G
las botellas
    Em   
pidieron que cantara
        E7
mis canciones
  B7
y yo canté unas dos
               Em
en contra de ellas.

                   E7         Am
De pronto que se acerca un caballero,
    D7                      G
su pelo ya pintaba algunas canas,
    Em                    Am
me dijo: 'le suplico compañero
       B7                           Em
que no hable en mi presencia de las damas'.

    D7                      G
Le dije que nosotros simplemente
    D7            
hablamos de lo mal
           G
que nos pagaron
          B7
que si alguien
             Em
opinaba diferente
 C             B7            Em
sería porque jamás lo traicionaron
          B7
que si alguien
             Em
opinaba diferente
 C             B7            Em
sería porque jamás lo traicionaron.


(INTRO) 


                 E7          Am
Me dijo: 'yo soy uno de los seres
    D7                       G
que más ha soportado los fracasos
    Em                     Am
y siempre me dejaron las mujeres
    B7                         Em
llorando y con el alma hecha pedazos.
                 E7          Am
Mas nunca les reprocho mis heridas
     D7                       G
se tiene que sufrir cuando se ama
     Em                       Am
las horas más hermosas de mi vida
     B7                      Em
las he pasado al lado de una dama'.

 D7                         G
Pudiéramos morir en las cantinas
   D7                    G
y nunca lograríamos olvidarlas
   B7                     Em
mujeres, oh mujeres tan divinas!
     C          B7          Em
no queda otro camino que adorarlas,
   B7                     Em
mujeres, oh mujeres tan divinas!
     C          B7          Em      B7 E
no queda otro camino que adorarlas.



Keywords / Palabras clave: Mujeres Divinas, Vicente Fernandez, letras, letra, acordes, canciones, cancion, grupo, banda, cantante, tablatura, partitura, tocar con guitarra, armónica, teclado, bajo, ejecutar, bajar, mp3, música, chords, lyrics, versión, cover, piano, acrodes, acordes de Mujeres Divinas, Vicente Fernandez

Inicio | Artistas | Recursos | Buscar | AGREGA TU TABLATURA A 10ACORDES | Contacto

www.10acordes.com.ar - 2014© - 2014-10-31 01:31:23