letra, letras, acorde, acordes, tablatura, tablaturas, partitura, partituras de la canción No Vuelvo a Amar de Proyección, 25467

No Vuelvo a Amar de Proyección

Colaboración de VICENTE ARTURO

(THE_WATCHER_22 @ LATINMAIL.COM)          (Visitas: 12604)

Ver No Vuelvo a Amar de Proyección en vista para impresión



¿Dudas de cómo es un acorde? Visitar la página cómo formar acordes en guitarra

Ahí les va un pequeña
Mejora de el enterior transcrito de este buen tema de este grupaso boliviano
Como es PROYECCIÓN 

INTRO:

e --2-----5-5-5-5-------10-10-9-7----------7-7-10-10------12-10-7-5-------------
B ------------------------------------------------------------------------------
	
e --2-----5-5-5-5-------10-10-9-7----------7-7-10-10----------12h-10h----14-10--
b ------------------------------------------------------------------------------


D                        G
ME VI PERDIDO Y SIN SABEEEEER
                     D
QUE YO MORIA SIN QUERER
                      G
YA NO CONFIABA EN OTRO SER
                      D
POR QUE PERSI A LA QUE AME


RIFF:

           F#7         Bm
TU ME ENSEÑASTE A COMPARTIR
           G         D
MI VIDA ENTERA TE OFRECI
         F#7         Bm
TANTA TERNURA TE ENTREGUE
           G         D
SOLO TU OLVIDO RECIBI
           F#7              Bm
POR QUE EL CARIÑO SUELE CAMBIAR
         G         D
SI SABE AMAR, TAMBIEN OLVIDAR
        F#7              Bm
NO EXISTE EL TIEMPO PARA BOORRAR
         G         D
SU INMENSO AMOR, TU DULCE MIRAR
        F#7              Bm       
NO VUELVO AMAR, NO VUELVO AMAR
       G         D
NO VUELVO AMAR, NO VUELVO AMAR

D  G  D  G  D
F#7 Bm G D 



ESPERO QUE LES HAYA GUSTADO 



RIFF:
e --------------------------
B --------------------------
G --------------------------
D --0-4-2-0-----------------
A -----------4-2------------
E ----------------3-2-------

CUALQUIER COMENTARIO A MI E-MAIL    NOS VEMOS



Keywords / Palabras clave: No Vuelvo a Amar, Proyección, letras, letra, acordes, canciones, cancion, grupo, banda, cantante, tablatura, partitura, tocar con guitarra, armónica, teclado, bajo, ejecutar, bajar, mp3, música, chords, lyrics, versión, cover, piano, acrodes, acordes de No Vuelvo a Amar, Proyección

Inicio | Artistas | Recursos | Buscar | AGREGA TU TABLATURA A 10ACORDES | Contacto

www.10acordes.com.ar - 2014© - 2014-12-17 21:40:53