letra, letras, acorde, acordes, tablatura, tablaturas, partitura, partituras de la canción nothing else matters de Metallica, 41850

nothing else matters de Metallica

Colaboración de (TAB)

(my_chemical_romance_stupidfan @ hotmail.com)          (Visitas: )

Ver nothing else matters de Metallica en vista para impresión



¿Dudas de cómo es un acorde? Visitar la página cómo formar acordes en guitarra

                           NOTHING ELSE MATTERS




---------0--------------0---------------0-----/
-----0------0---------0---0----------0----0---/
---0----------0-----0-------0------0--------0-/
----------------------------------------------/
----------------------------------------------/
-0----------------0--------------0------------/


--------0----7--7------7--0-----------7--8--7--8--5/
-----0----0--------0---0----0----0----0--0---------/
---0-----------------0--------0----0---------------/
---------------------------------------------------/
---------------------------------------------------/
-0--------------0----------------0-----------------/


--7--5--3--2-----------2-0----/
--0----------5---5---5-----5--/
-------------------5---------5/
------------------------------/
------------------------------/
------------------------------/


--------0--0-0-0--------3-0-----0---0----------0-5-0--------/
------5----5-5-5----5-------5---5---7-----7----------7-0-0-5/
----5------5-5-5--5---5-------5-5---7---7---7---------------/
------------------------------------------------------------/
--0--------0-2-3-3--------------3---5-5---------------------/
------------------------------------------------------------/

harmonico
-------12----/ /---------0-------------0------------0----/
--12-12---0--/ /-------0---0---------0---0--------0---0--/
--12--------0/ /-----0-------0-----0-------0----0-------0/
-------------/ /-----------------------------------------/
-------------/ /-----------------------------------------/
-------------/ /--0-------------0-------------0----------/


------------7-----------------------/
------------8-----------7---------5-/
----------9-------------7---------5-/  X 3
-------9-------------7---------5----/
----7-------------5--------3--------/
--0---------------------------------/


--------------------/
---------3---------4/
---------4---------2/
------5---------4---/
--------------2-----/
---3----------------/


-----------0-------------------0------/
--------0-----0-------------0-----0---/
-----0----------0--------0-----------0/
--------------------------------------/
--------------------------------------/
--0------------------0----------------/




Keywords / Palabras clave: nothing else matters, Metallica, letras, letra, acordes, canciones, cancion, grupo, banda, cantante, tablatura, partitura, tocar con guitarra, armónica, teclado, bajo, ejecutar, bajar, mp3, música, chords, lyrics, versión, cover, piano, acrodes, acordes de nothing else matters, Metallica

Inicio | Artistas | Recursos | Buscar | AGREGA TU TABLATURA A 10ACORDES | Contacto

www.10acordes.com.ar - 2014© - 2014-11-01 03:22:53