letra, letras, acorde, acordes, tablatura, tablaturas, partitura, partituras de la canción Nuestro Juramento de Julio Jaramillo, 25567

Nuestro Juramento de Julio Jaramillo

Colaboración de Jose Saiz (TAB)

(josesaiz @ hotmail.com)          (Visitas: 35228)

Ver Nuestro Juramento de Julio Jaramillo en vista para impresión



¿Dudas de cómo es un acorde? Visitar la página cómo formar acordes en guitarra

Nuestro Juramento
Criolla
La Verdadera Tab de la Cancion

E -0-4-7-10-13-|-12-8-5-|-0-0-0---4-4-4---7-7-7----10-13-|-12----12---
B -------------|--------|-------5-------9-------12-------|----13----13
G -------------|--------|--------------------------------|------------
D -------------|--------|--------------------------------|------------
A -------------|--------|--------------------------------|------------
E -------------|--------|--------------------------------|------------

E -5-|-13-10-13----15-10-15----13-10-13----15-10-15----|-12-8-12----13
B ---|----------15----------15----------15----------15-|---------13---
G ---|-------------------------------------------------|--------------
D ---|-------------------------------------------------|--------------
A ---|-------------------------------------------------|--------------
E ---|-------------------------------------------------|--------------

E -8-13----12-8-12----13-8-13----|-10-7-10----12-7-12----10-7-10----12
B ------13---------13---------13-|---------12---------12---------12---
G -------------------------------|------------------------------------
D -------------------------------|------------------------------------
A -------------------------------|------------------------------------
E -------------------------------|------------------------------------

E -7-12-7-|----8--12-12-|------|------|------|------|------|------|---
B --------|-10-10-13-13-|------|------|------|------|------|------|---
G --------|-------14-14-|------|------|------|------|------|------|---
D --------|-------------|------|------|------|------|------|------|---
A --------|-------------|------|------|------|------|------|------|---
E --------|-------------|------|------|------|------|------|------|---

Interpretada por Julio Jaramillo
Author y Derechos Reservado Benito de Jesus.

Tablatura por Jose Saiz http://www.mashispano.com/guitarra



Keywords / Palabras clave: Nuestro Juramento, Julio Jaramillo, letras, letra, acordes, canciones, cancion, grupo, banda, cantante, tablatura, partitura, tocar con guitarra, armónica, teclado, bajo, ejecutar, bajar, mp3, música, chords, lyrics, versión, cover, piano, acrodes, acordes de Nuestro Juramento, Julio Jaramillo

Inicio | Artistas | Recursos | Buscar | AGREGA TU TABLATURA A 10ACORDES | Contacto

www.10acordes.com.ar - 2014© - 2014-10-25 09:17:05