letra, letras, acorde, acordes, tablatura, tablaturas, partitura, partituras de la canción Odiame de Julio Jaramillo, 25801

Odiame de Julio Jaramillo

Colaboración de aldo fernandez ramos (TAB)

(aldo_809 @ hotmail.com)          (Visitas: 16025)

Ver Odiame de Julio Jaramillo en vista para impresión



¿Dudas de cómo es un acorde? Visitar la página cómo formar acordes en guitarra

QUE HONDA COMO ESTAN AQUI LES TRAIGO EL REQUINTO DE ODIAME
LES JURO QUE ESTA BIEN SACADO AQUI LO TIENEN

ASI EMPIEZA:

E-------0-0-5-5-4-4-7-7-5-5-9-9-7-7-10-10-8-8-12-12-10-10
B-1-2-3--------------------------------------------------
G-0------------------------------------------------------

Y DESPUES EL FINAL:

E-13-13-11-12--12--12--12-0-0-12-0-0-10-0-0-12-0-0-10
B----------------------------------------------------
G----------------------------------------------------

E-0-0-10-0-0-8-0-0-10-0-0-8-7-7-7--------------------
B----------------------------------------------------
G----------------------------------------------------

SI QUIEREN CUANDO EMPIEZA A CANTAR PUEDEN HACER ESTE 
ADORNO CON OTRA GUITARRA:

E-7--7-7--8--8-8--7--7-7--8--8-8
B-------------------------------
G-------------------------------

BUENO ESO ES TODO HAY LUEGO MANDO MAS DE JULIO JARAMILLO 
QUE LA NETA CANTA DE POCA



Keywords / Palabras clave: Odiame, Julio Jaramillo, letras, letra, acordes, canciones, cancion, grupo, banda, cantante, tablatura, partitura, tocar con guitarra, armónica, teclado, bajo, ejecutar, bajar, mp3, música, chords, lyrics, versión, cover, piano, acrodes, acordes de Odiame, Julio Jaramillo

Inicio | Artistas | Recursos | Buscar | AGREGA TU TABLATURA A 10ACORDES | Contacto

www.10acordes.com.ar - 2014© - 2014-07-25 17:19:15