letra, letras, acorde, acordes, tablatura, tablaturas, partitura, partituras de la canción Ojalá de Nicho Hinojosa, 25894

Ojalá de Nicho Hinojosa

Colaboración de Hector Sanchez Quiñones (TAB)

(hectorsaq @ hotmail.com)          (Visitas: 4513)

Ver Ojalá de Nicho Hinojosa en vista para impresión



¿Dudas de cómo es un acorde? Visitar la página cómo formar acordes en guitarra

Bueno, para todos aquellos que ya querian esta 
tablatura por fin a llegado, se las puse lo mas 
sencilla que se me ocurrio, asi que diviertanse

Saludos a la Prepa la Salle de Torreon, Coahuila
a mis amigos Ivan , Manuel , a toda la raza , 
pero especialmente a Reina y a Ana Claudia de parte 
de Ivan


    Am       A*       Am7      A*    
6 -----------------------------------0h2----
5 --0--------0--------0--------0------------
4 ----2--------2--------2--------2----------
3 -----2--------1--------0--------1---------
2 ------1--------1--------1--------1--------
1 -------0--------0--------0----------------


   Am       A*       Am7      A*    
6 -----------------------------------0h2----
5 --0--------0--------0--------0------------
4 ----2--------2--------2--------2----------
3 -----2--------1--------0--------1---------
2 ------1--------1--------1--------1--------
1 -------0--------0--------0----------------

    Am        A*        Am7       A*    
6 ------------------------------------------
5 --0---------0---------0---------0---------
4 ----2---------2---------2---------2-------
3 ------2---------1---------0---------1-----
2 --------1---------1---------1---------1---
1 ----------0---------0---------0---------0-
         Ojala que las hojas no te toquen el

    Am        A*        Am7       A*    
6 -------------------------------------------0h2-
5 --0---------0---------0---------0--------------
4 ----2---------2---------2---------2------------
3 ------2---------1---------0---------1----------
2 --------1---------1---------1---------1--------
1 ----------0---------0---------0---------0------
    cuerpo cuando caigan

   G         G         G         G    
6 -3---------3---------3---------3------------
5 --------------------------------------------
4 ---0---------0---------0---------0----------
3 -----0---------0---------0---------0--------
2 -------3---------3---------3---------3------
1 ---------3---------3---------3---------3-----
           para que no las puedas convertir 

    Am        A*        Am7       A*    
6 -------------------------------------------0h2
5 --0---------0---------0---------0-------------
4 ----2---------2---------2---------2-----------
3 ------2---------1---------0---------1---------
2 --------1---------1---------1---------1-------
1 ----------0---------0---------0---------0-----
     en crista-a-al

   G         G         E         E    
6 -3---------3---------0---------0------------
5 --------------------------------------------
4 ---0---------0---------2---------2----------
3 -----0---------0---------1---------1--------
2 -------3---------3---------0---------0------
1 ---------3---------3---------0---------0----
         ojala que la lluvia deje de ser el

    Am        C#m        F#m        F#m   
6 ------------4----------2----------2-----------
5 --0-------------------------------------------
4 ----2---------6----------4----------4---------
3 ------2---------6----------2----------2-------
2 --------1---------5----------2----------2-----
1 ----------0---------4----------2----------2---
    milagro que vaga por tu cuerpo 

    C#m        C#        C#m        C#m 
6 -----------------------------------------------
5 --4----------4----------4----------4-----------
4 ----6----------6----------6----------6---------
3 ------6----------6----------6----------6-------
2 --------5----------6----------5----------5-----
1 ----------4----------4----------4----------4---
            ojala que el deseo se vaya tras de 

    F#m        F#m*        B7         B7   
6 ------------------------------------x---
5 --4----------2-----------2----------2---
4 ----4----------2-----------4--------4---
3 ------2----------2-----------2------2---
2 --------2----------2-----------4----4---
1 ----------2----------2-----------2--2---
     ti.

    Am        A*        Am       E   
6 --------------------------------0--------------
5 --0---------0---------0------------------------
4 ----2---------2---------2---------2------------
3 ------2---------1---------2---------1----------
2 --------1---------1---------1---------0--------
1 ----------0---------0---------0---------0------
            ojala que la tierra    no te bese 

    Am        A*        Am7       A*    
6 -----------------------------------------------
5 --0---------0---------0---------0--------------
4 ----2---------2---------2---------2------------
3 ------2---------1---------0---------1----------
2 --------1---------1---------1---------1--------
1 ----------0---------0---------0---------0------
     los paso-o-os

    Am        A*        Am7       A*    
6 -------------------------------------------0h2-
5 --0---------0---------0---------0--------------
4 ----2---------2---------2---------2------------
3 ------2---------1---------0---------1----------
2 --------1---------1---------1---------1--------
1 ----------0---------0---------0---------0------
           ojala  se  te  acabe  la  mirada  cons-

   G         G         G         G    
6 -3---------3---------3---------3------------
5 --------------------------------------------
4 ---0---------0---------0---------0----------
3 -----0---------0---------0---------0--------
2 -------3---------3---------3---------3------
1 ---------3---------3---------3---------3----
   -tante    la palabra precisa la sonrisa per-

    C*         C           
6 ---------------------
5 --3----------3-------
4 ----2---------2------
3 ------0--------0-----
2 --------1-------1----
1 ----------3------3---
    fecta,    ojala pase 

 D                      G                Em 
algo que te borre de pronto, una luz cegadora, 
                C
un disparo de nieve
               D                   G
ojala por lo menos que lleve la muerte 
                Em                     C
para no verte tanto, para no verte siempre

en todos los segun- 

   Am        A*        Am7       A*    
6 -------------------------------------------0h2
5 --0---------0---------0---------0-------------
4 ----2---------2---------2---------2-----------
3 ------2---------1---------0---------1---------
2 --------1---------1---------1---------1-------
1 ----------0---------0---------0---------0-----
    -dos

   G         G         G         G    
6 -3---------3---------3---------3------------
5 --------------------------------------------
4 ---0---------0---------0---------0----------
3 -----0---------0---------0---------0--------
2 -------3---------3---------3---------3------
1 ---------3---------3---------3---------3----
           en  todas  las  visione-e-e-s

   Cm         Cm         D         D*D D  D9 D D
6 ---------------------------------x-x-x-x-x-x-x--
5 -3----------3--------------------0-0-0-0-0-0-0--
4 ---5----------5--------0---------0-0-0-0-0-0-0--
3 -----5----------5---------2------2-2-2-2-2-2-2--
2 -------4----------4---------3----3-3-3-3-3-3-3--
1 ---------3----------3---------2--3h2-2-0-0h2-2--
             ojala que no pueda               tocarte


    Am        A*        Am7       A*    
6 --------------------------------------------
5 --0---------0---------0---------0-----------
4 ----2---------2---------2---------2---------
3 ------2---------1---------0---------1-------
2 --------1---------1---------1---------1-----
1 ----------0---------0---------0---------0---
    ni en canciones


    Am        A*        Am7       A*    
6 -------------------------------------------0h2-
5 --0---------0---------0---------0--------------
4 ----2---------2---------2---------2------------
3 ------2---------1---------0---------1----------
2 --------1---------1---------1---------1--------
1 ----------0---------0---------0---------0------


    Am        A*        Am7       A*    
6 ------------------------------------------
5 --0---------0---------0---------0---------
4 ----2---------2---------2---------2-------
3 ------2---------1---------0---------1-----
2 --------1---------1---------1---------1---
1 ----------0---------0---------0---------0-
            Ojala que la aurora no de gritos 

    Am        A*        Am7       A*    
6 -------------------------------------------0h2-
5 --0---------0---------0---------0--------------
4 ----2---------2---------2---------2------------
3 ------2---------1---------0---------1----------
2 --------1---------1---------1---------1--------
1 ----------0---------0---------0---------0------
     que caigan en mi espald-a-a-a

   G         G         G         G    
6 -3---------3---------3---------3------------
5 --------------------------------------------
4 ---0---------0---------0---------0----------
3 -----0---------0---------0---------0--------
2 -------3---------3---------3---------3------
1 ---------3---------3---------3---------3-----
            ojala que tu nombre se le olvide

    Am        A*        Am7       A*    
6 -------------------------------------------0h2
5 --0---------0---------0---------0-------------
4 ----2---------2---------2---------2-----------
3 ------2---------1---------0---------1---------
2 --------1---------1---------1---------1-------
1 ----------0---------0---------0---------0-----
    a esta vo-oz

   G         G         E         E    
6 -3---------3---------0---------0------------
5 --------------------------------------------
4 ---0---------0---------2---------2----------
3 -----0---------0---------1---------1--------
2 -------3---------3---------0---------0------
1 ---------3---------3---------0---------0----
            ojala las paredes no retengan tu 

    Am        C#m        F#m        F#m   
6 ------------4----------2----------2-----------
5 --0-------------------------------------------
4 ----2---------6----------4----------4---------
3 ------2---------6----------2----------2-------
2 --------1---------5----------2----------2-----
1 ----------0---------4----------2----------2---
    ruido de camino cansado

    C#m        C#        C#m        C#m 
6 -----------------------------------------------
5 --4----------4----------4----------4-----------
4 ----6----------6----------6----------6---------
3 ------6----------6----------6----------6-------
2 --------5----------6----------5----------5-----
1 ----------4----------4----------4----------4---
              ojala que la luna pueda salir sin

    F#m        F#m*        B7         B7   
6 ------------------------------------x---
5 --4----------2-----------2----------2---
4 ----4----------2-----------4--------4---
3 ------2----------2-----------2------2---
2 --------2----------2-----------4----4---
1 ----------2----------2-----------2--2--- B7
     ti.

    Am        A*        Am       E   
6 --------------------------------0--------------
5 --0---------0---------0------------------------
4 ----2---------2---------2---------2------------
3 ------2---------1---------2---------1----------
2 --------1---------1---------1---------0--------
1 ----------0---------0---------0---------0------
            a tu viejo gobierno de difuntos y

    Am        A*        Am7       A*    
6 -----------------------------------------------
5 --0---------0---------0---------0--------------
4 ----2---------2---------2---------2------------
3 ------2---------1---------0---------1----------
2 --------1---------1---------1---------1--------
1 ----------0---------0---------0---------0------
     flo-o-re-e-e-e-es

    Am        A*        Am7       A*    
6 -----------------------------------------------
5 --0---------0---------0---------0--------------
4 ----2---------2---------2---------2------------
3 ------2---------1---------0---------1----------
2 --------1---------1---------1---------1--------
1 ----------0---------0---------0---------0------
           ojala  se  te  acabe  la  mirada cons-

   G         G         G          G    
6 -3---------3---------3----------3----------
5 ------------------------------------0-2----
4 ---0---------0---------0-------------------
3 -----0---------0---------0-----------------
2 -------3---------3---------3---------------
1 ---------3---------3---------3-------------
   -tante    la palabra precisa la sonrisa per-

    C*         C           
6 -----------------------
5 --3----------3---------
4 ----2----------2-------
3 ------0----------0-----
2 --------1----------1---
1 ----------3----------3-
    fecta,    ojala pase 

 D                      G                Em 
algo que te borre de pronto, una luz cegadora, 
                C
un disparo de nieve
               D                   G
ojala por lo menos que lleve la muerte 
                Em                     C
para no verte tanto, para no verte siempre

en todos los segun- 

   Am        A*        Am7       A*    
6 -------------------------------------------0h2
5 --0---------0---------0---------0-------------
4 ----2---------2---------2---------2-----------
3 ------2---------1---------0---------1---------
2 --------1---------1---------1---------1-------
1 ----------0---------0---------0---------0-----
    -dos

   G         G         G         G    
6 -3---------3---------3---------3------------
5 --------------------------------------------
4 ---0---------0---------0---------0----------
3 -----0---------0---------0---------0--------
2 -------3---------3---------3---------3------
1 ---------3---------3---------3---------3----
           en  todas  las  visione-e-e-s

   Cm         Cm         D         D*D D  D9 D D
6 ---------------------------------x-x-x-x-x-x-x--
5 -3----------3--------------------0-0-0-0-0-0-0--
4 ---5----------5--------0---------0-0-0-0-0-0-0--
3 -----5----------5---------2------2-2-2-2-2-2-2--
2 -------4----------4---------3----3-3-3-3-3-3-3--
1 ---------3----------3---------2--3h2-2-0-0h2-2-- 
             ojala que no pueda            

D-D              G       Em C (bis)
tocarte ni en cancioness

sugerencias, o alguna correccion que me quieran mandar 
las aceptare en mi mail . saludos



Keywords / Palabras clave: Ojalá, Nicho Hinojosa, letras, letra, acordes, canciones, cancion, grupo, banda, cantante, tablatura, partitura, tocar con guitarra, armónica, teclado, bajo, ejecutar, bajar, mp3, música, chords, lyrics, versión, cover, piano, acrodes, acordes de Ojalá, Nicho Hinojosa

Inicio | Artistas | Recursos | Buscar | AGREGA TU TABLATURA A 10ACORDES | Contacto

www.10acordes.com.ar - 2014© - 2014-07-22 14:06:11