letra, letras, acorde, acordes, tablatura, tablaturas, partitura, partituras de la canción Ojos Azules de Canciones Populares, 25926

Ojos Azules de Canciones Populares

Colaboración de Michael Illanes (TAB)

(mit_tigre @ hotmail.com)          (Visitas: 25357)

Ver Ojos Azules de Canciones Populares en vista para impresión



¿Dudas de cómo es un acorde? Visitar la página cómo formar acordes en guitarra

                 C                      Am    
           
e-0-0-0-3-0---0--------0-0-0-------------------------
b-----------3------1-3----------3-0-1----------------
g----------------------------------------------------
d----------------------------------------------------
a----------------------------------------------------
E----------------------------------------------------

                 C                      Am            

e----------------------0-0-0-------------------------
b-1-1-1-----1-3----1-3----------3-0-1----------------
g-------2-0------------------------------------------
d----------------------------------------------------
a----------------------------------------------------
E----------------------------------------------------



Am        C
Ojos azules no llores
                E7       Am
no llores ni tengas amores
Am        C
Ojos azules no llores
                E7       Am
no llores ni tengas amores



Am          C
Llorarás cuando me vaya
           E7       Am
cuando remedio no haya
Am          C
Llorarás cuando me vaya
           E7       Am
cuando remedio no haya




Am        C
Me prometiste quererme
           E7     Am
quererme toda la vida
Am        C
Me prometiste quererme
           E7     Am
quererme toda la vida



Am        C
Tu me juraste cariño
           E7     Am
pero me dejaste llorando
Am        C
Tu me juraste cariño
           E7     Am
pero me dejaste llorando



Keywords / Palabras clave: Ojos Azules, Canciones Populares, letras, letra, acordes, canciones, cancion, grupo, banda, cantante, tablatura, partitura, tocar con guitarra, armónica, teclado, bajo, ejecutar, bajar, mp3, música, chords, lyrics, versión, cover, piano, acrodes, acordes de Ojos Azules, Canciones Populares

Inicio | Artistas | Recursos | Buscar | AGREGA TU TABLATURA A 10ACORDES | Contacto

www.10acordes.com.ar - 2014© - 2014-12-22 23:43:22