letra, letras, acorde, acordes, tablatura, tablaturas, partitura, partituras de la canción One de Metallica, 41780

One de Metallica

Colaboración de (TAB)

(cloud_ranma99 @ yahoo.com)          (Visitas: )

Ver One de Metallica en vista para impresión



¿Dudas de cómo es un acorde? Visitar la página cómo formar acordes en guitarra

  Intro
  e |-------------------------- x2
  B |--------------------------
  G |--------------------------
  D |---4---0-----4---0--------
  A |-2---2--------------------
  E |-----------3---3----------

  e |----------------------------------------------
  B |----------------------------------------------
  G |----------------------------------------------
  D |---4---0-----4---0-----4---0------------------
  A |-2---2-----0---0------------------------------
  E |---------------------3---3--------------------

  e |-----------
  B |-----------
  G |-----------
  D |---2---2---
  A |-0---2-----
  E |-----------



Keywords / Palabras clave: One, Metallica, letras, letra, acordes, canciones, cancion, grupo, banda, cantante, tablatura, partitura, tocar con guitarra, armónica, teclado, bajo, ejecutar, bajar, mp3, música, chords, lyrics, versión, cover, piano, acrodes, acordes de One, Metallica

Inicio | Artistas | Recursos | Buscar | AGREGA TU TABLATURA A 10ACORDES | Contacto

www.10acordes.com.ar - 2014© - 2014-08-20 23:02:04