letra, letras, acorde, acordes, tablatura, tablaturas, partitura, partituras de la canción Otra Canción de Amor de Vilma Palma e Vampiros, 26198

Otra Canción de Amor de Vilma Palma e Vampiros

Colaboración de Jabm Contreras

(do.while @ usa.net)          (Visitas: 2033)

Ver Otra Canción de Amor de Vilma Palma e Vampiros en vista para impresión



¿Dudas de cómo es un acorde? Visitar la página cómo formar acordes en guitarra

C                  Dm         F
Me pregunto si vas a llamar
                     C
preciso escuchar tu voz
                  Dm        F
No sabes como duele vivir
                         C
sin el calor que vos me das

   Am      G     F
No se porque----- nos prometimos
            C
no herirnos mas
   Am      G     F                     C
No se porque ---- nos hicimos tanto mal

C                     Dm      F
Me acuerdo de esa mañana
                      C
en que juramos no dejarnos
                     Dm      F    
y ahora me parece tan lejos
                 C 
que solo puedo llorar

   Am      G     F
No se porque----- nos prometimos
            C
no herirnos mas
   Am      G      F                   C
No se porque ------ nunca vimos mas alla

Riff
{Teclado adaptado para guitarra}
{ ~ = Vibrato }
                                                                |--dos veces--| 
E|----------8--------------------13----------------15-15-13-12---------------
B|----8--10----10--8-10------------10~---------13----------------------------
G|-----------------------7-------------------14-----------------12\14/12~----
D|---------------------------------------------------------------------------
A|---------------------------------------------------------------------------
E|---------------------------------------------------------------------------

E|-------------------------
B|-------------------------
G|---12/14\12-12/14\12~----
D|-------------------------
A|-------------------------
E|-------------------------

E|----------8---------------------12----------------15-15-13-12-12~--
B|----8--10----10--8-10-8------------10~---------13------------------
G|------------------------7-------------------14---------------------
D|-------------------------------------------------------------------
A|-------------------------------------------------------------------
E|-------------------------------------------------------------------


{Coro C/Distorsion}

   A5      G5     F5                  C5
No se porque-----  necesitaba decirtelo
   A5      G5     F5    
no se porque-----  no me resigno
           C5
a no verte mas

                    Dm      F
Solo se que es tan difìcil 
                              C
intentar no pensar para no recordar
                       Dm       F
que te he perdido para siempre
                       C
me gustarìa poderte abrazar


  A5       G5      F5   
Adios, Adios
                           C5
estaba escrito en nuestras vidas
  A5       G5      F5   
Adios, Adios
                           C5
estaba escrito en nuestras vidas


Solo [Aproximado, se oye muy cercano aunque hay algunas variaciones]
----
/ = slide
~ = Vibrato
p = Pull off
b = Bend

E|-------------------------------------------------------------------------------------
B|-------------------------------------------------------------------------------------
G|-----------5~-------9---7--5/7-7---4p5p4p5p4p5p4p5p4---------------------------------
D|--------------7--------------------------------------5/7--5-5-7/5--------------------
A|------------------------------------------------------------------------7-5----------
E|----------------------------------------------------------------------------8-5-8----

E|------------------------------------------------------------5--------------------------
B|---------------------------------------------------------------------------------------
G|-----------------------------------------5---5---5-7b9~~~~----7b9~~~~--7b9~~~~---------
D|-------------------------------5---5p-7----7---7---------------------------------------
A|----------------5----5p-7-7--7---7-----------------------------------------------------
E|8-8-5-5p-8-8--8---8--------------------------------------------------------------------


Repetir esto 7 veces
--------------------
E|--------------------------
B|--------------------------
G|---7p9-9------------------
D|--------------------------
A|--------------------------
E|--------------------------

Acordes usados
    
     Am  C  F  Dm  G5 A5 F5 C5 C5
E|---0---0--1--1--------------------
B|---1---1--1--2---x--x--x--x--x----
G|---2---0--2--3---x--x--x--5--x----
D|---2---2--3--0---5--7--3--5--10---
A|---0---3--3--0---5--7--3--3--10---
E|---0---0--1--X---3--5--1--x--8----

Con la Colaboracion muy valiosa de Abdul Machi 
                                   Emmanuel Sanchez (sanemm@rocketmail.com)



Keywords / Palabras clave: Otra Canción de Amor, Vilma Palma e Vampiros, letras, letra, acordes, canciones, cancion, grupo, banda, cantante, tablatura, partitura, tocar con guitarra, armónica, teclado, bajo, ejecutar, bajar, mp3, música, chords, lyrics, versión, cover, piano, acrodes, acordes de Otra Canción de Amor, Vilma Palma e Vampiros

Inicio | Artistas | Recursos | Buscar | AGREGA TU TABLATURA A 10ACORDES | Contacto

www.10acordes.com.ar - 2014© - 2014-07-31 20:18:03