letra, letras, acorde, acordes, tablatura, tablaturas, partitura, partituras de la canción Palomita Blanca de Juan Luis Guerra, 26552

Palomita Blanca de Juan Luis Guerra

Colaboración de Ivan Diaz C. (TAB)

(elbronx @ hotmail.com)          (Visitas: 2965)

Ver Palomita Blanca de Juan Luis Guerra en vista para impresión



¿Dudas de cómo es un acorde? Visitar la página cómo formar acordes en guitarra

Transcripcion de Ivan Diaz C.
(elbronx@hotmail.com)

Intro:
  		  F		 C	        D
e|--------------|-13-13-13-13--|-12-12-13-12--|-10----8-10-13-12--|
b|-------5--6---|--------------|--------------|-------------------|
g|-5--7---------|--------------|--------------|-------------------|
d|--------------|--------------|--------------|-------------------|
a|--------------|--------------|--------------|-------------------|
E|--------------|--------------|--------------|-------------------|
   Bb  		  F		 Gm    C	Gm       C
e|-10-----------|-8-10-12------|-13-12--------|-------------------|
b|--------------|--------------|--------------|-11-10-8-6-5-6-----|
g|--------------|--------------|--------------|-------------------|
d|--------------|--------------|--------------|-------------------|
a|--------------|--------------|--------------|-------------------|
E|--------------|--------------|--------------|-------------------| 

Dm
Te dire: soy tan feliz
	A
Cuando estoy cerca de ti,
	  Bb
Que no me acustumbro
F		 Gm  C   Gm  C
Si no escucho el verde de tu voz.
Dm
Ya lo vez, nada es igual,
 A	
Todo es frio si no estas.
Bb	  	 F
Palomita blanca,
	   Gm      C
Llevale en tus alas mi cancion.
F	     C		       Dm
Dile que las noches no han callado.
	   Bb    F		Gm C Gm C
De amor hablaron   y no se han ido.
F	     C		       Dm
Dile que la quiero y que la extraño,
	       Bb  F		 Gm  C 
Que no he olvidado   y que he sufrido.


Intro (F,C,Dm,Bb,F,Gm-C,Gm-C)

Dm		     
Ya lo se.  Cuento mi error,
A
pero entiendo que el amor
        Bb        F          Gm C
todo lo perdona y   nunca se acaba.
Gm  C	     Dm			
Corazon, ya lo vez, nada es igual.
A
Todo es vano si no estas.
Bb		 F	     Gm    C
Palomita blanca,  llevale en tus alas
        
mi cancion


Dile que las noches...

solo
   F           C        Dm
e|-13-15-17----12-13-15-13-12-13-12-10----12-13-15-13-12------|
b|------------------------------------------------------------|

   Bb             F                Gm      C     G       C
e|---18--18-17-15---17--17-15-13----------------------------5-3------|
b|-18--18---------18--18-----------------6-5-3---------6-5------6----|
g|-------------------------------------3-------5-----5---------------|
d|-----------------------------------5-------------5-----------------|
a|-----------------------------------------------3-------------------|
E|---------------------------------3---------------------------------|


break
Dm           Bb
y una gabiota de luz,
F             C
entre las olas del mar,
Dm              Bb
va recogiendo el azul
F            C
que yo no te supe dar

y una aurora con besos de tul.


Dile que las noches...


Transcripcion de Ivan Diaz C.
(elbronx@hotmail.com)



Keywords / Palabras clave: Palomita Blanca, Juan Luis Guerra, letras, letra, acordes, canciones, cancion, grupo, banda, cantante, tablatura, partitura, tocar con guitarra, armónica, teclado, bajo, ejecutar, bajar, mp3, música, chords, lyrics, versión, cover, piano, acrodes, acordes de Palomita Blanca, Juan Luis Guerra

Inicio | Artistas | Recursos | Buscar | AGREGA TU TABLATURA A 10ACORDES | Contacto

www.10acordes.com.ar - 2014© - 2014-10-01 02:36:45