letra, letras, acorde, acordes, tablatura, tablaturas, partitura, partituras de la canción Pensando en ti de Mago De Oz, 27303

Pensando en ti de Mago De Oz

Colaboración de Jesus Paul Gordillo Ramirez (TAB)

(jpgordi @ mixmail.com)          (Visitas: 15352)

Ver Pensando en ti de Mago De Oz en vista para impresión



¿Dudas de cómo es un acorde? Visitar la página cómo formar acordes en guitarra

QUE TAL GENTE, aqui 'Momix' les da esta cancion pa' que la toquen
con sentimiento, ya a las jermas les gusta,
me tomo algunos minutos patra sacarla, asi que esta muy facil...


Bueno ahi les va el intro...   

    C                      C7M                    C/D
  E|----------------------|----------------------|----------------------|--
  B|---1--------1---------|---0--------0---------|---3--------3---------|--
  G|------0--------0------|------0--------0------|------0--------0------|--
  D|---------2--------2---|---------2--------2---|---------2--------2---|--
  A|---3------------------|---3------------------|---3------------------|--
  E|----------------------|----------------------|----------------------|--

    C                      C7M                    Dsus2              
  E|----------------------|----------------------|----------------------|--
  B|---1--------1---------|---0--------0---------|---3--------3---------|--
  G|------0--------0------|------0--------0------|------2--------2------|--
  D|---------2--------2---|---------2--------2---|---------2--------2---|--
  A|---3------------------|---3------------------|---0------------------|--
  E|----------------------|----------------------|----------------------|--

    Am
  E|----------------------|----------------------|----------------------|--
  B|---1--------1---------|---0--------0---------|---3--------3---------|--
  G|------2--------2------|------0--------0------|------0--------0------|--
  D|---------2--------2---|---------2--------2---|---------2--------2---|--
  A|---0------------------|---3------------------|---3------------------|--
  E|----------------------|----------------------|----------------------|--


  E|----------------------|----------------------|----------------------|--
  B|---1--------1---------|---0--------0---------|---3--------3---------|--
  G|------0--------0------|------0--------0------|------2--------2------|--
  D|---------2--------2---|---------2--------2---|---------2--------2---|--
  A|---3------------------|---3------------------|---0------------------|--
  E|----------------------|----------------------|----------------------|--


  E|----------------------|----------------------|----------------------|--
  B|---1--------1---------|---0--------0---------|---3--------3---------|--
  G|------2--------2------|------0--------0------|------0--------0------|--
  D|---------2--------2---|---------2--------2---|---------2--------2---|--
  A|---0------------------|---3------------------|---3------------------|--
  E|----------------------|----------------------|----------------------|--


  E|----------------------|----------------------|----------------------|--
  B|---1--------1---------|---0--------0---------|---3--------3---------|--
  G|------0--------0------|------0--------0------|------2--------2------|--
  D|---------2--------2---|---------2--------2---|---------2--------2---|--
  A|---3------------------|---3------------------|---0------------------|--
  E|----------------------|----------------------|----------------------|--


  E|----------------------|----------------------|----------------------|-----
  B|---1--------1---------|---0--------0---------|---3--------3---------|---1-
  G|------2--------2------|------0--------0------|------0--------0------|-----
  D|---------2--------2---|---------2--------2---|---------2--------2---|-----
  A|---0------------------|---3------------------|---3------------------|---3-
  E|----------------------|----------------------|----------------------|-----



Ya en la cancion, el arpejio se utiliza solo en la 2da y 3ra cuerda...


  C      C7M
  Hay veces q...

  C/D                        Am
  mi alma baila tango con la soledad

    C                   C7M
  y necesito de tabla tu amor

  C/D                      Am
  para asirme a ella en mi tempestad.


  C/D         Am
  Pensando en ti

  C/D                     Am
  paso el dia pensando en ti.



  C     C7M
  Enseñame

  C/D                      Am
  a escuchar tus labios a leer el sol

  C    C7M
  llevame...

  C/D                            Am       
  a donde los sueños fabrican tu voz



  C/D         Am
  Pensando en ti

  C/D                        Am         
  duermo el odio pensando en ti



   C       C7M
  ¿Donde estas?

  C/D                    Am
  tengo miedo, ayudame a caminar

  C                             C7M
  pues solo nunca yo podre encontrar

  C/D                                 Am
  la forma de ser libre, quiero despertar...



  C/D         Am
  Pensando en ti

  C/D                       Am
  acuno mi alma pensando en ti

  C/D                     Am
  paso el dia pensando en ti.





El punteo todavia esta en proceso, pero apenas lo tenga la mando pa' Ud.
mando saludos pa' mis patas del barrio y la promo 2003 'Champa', ah y
para mi grupo musical 'AMBITO', que esta causando sensacion...

comentarios, quejas, criticas, o lo que chucha sea:
jpgordi_sk8@hotmail.com

Bueno aqui me despido mis discipulos... 

BYE!!!!!!!!!............pa' la gente people.  ¡booh...!!!



Keywords / Palabras clave: Pensando en ti, Mago De Oz, letras, letra, acordes, canciones, cancion, grupo, banda, cantante, tablatura, partitura, tocar con guitarra, armónica, teclado, bajo, ejecutar, bajar, mp3, música, chords, lyrics, versión, cover, piano, acrodes, acordes de Pensando en ti, Mago De Oz

Inicio | Artistas | Recursos | Buscar | AGREGA TU TABLATURA A 10ACORDES | Contacto

www.10acordes.com.ar - 2014© - 2014-10-30 12:35:10