letra, letras, acorde, acordes, tablatura, tablaturas, partitura, partituras de la canción Poema de Salvacion de Marcos Witt, 42285

Poema de Salvacion de Marcos Witt

Colaboración de la cancion original esta en DO=C pero esta transcripcion esta en SOL=G espero les sirva de bendicion (TAB)

(orellanaraul_440 @ hotmail.com)          (Visitas: )

Ver Poema de Salvacion de Marcos Witt en vista para impresión



¿Dudas de cómo es un acorde? Visitar la página cómo formar acordes en guitarra

[NaCl] - Raul -

////transcripcion en Do mayor////

e|-------3---3--1--0------0-------------------------------------------|
B|---------------------3------3d4---3---1-1-----3d4----3---1-1--------|
G|-----0---0-----------0----------------------------------------------|
D|--------------------------------------------------------------------|
A|---3----------------------------------------------------------------|
E|--------------------------------------------------------------------|


 C                G    Am       F            G   C
Cristo moriste en una cruz     Resucitaste con poder
 
C              G    Am             F            G   C
perdona mis pecados hoy        se mi señor mi salvador


F            G       Am        F            G       Am
cambiame y hasme otra vez    y ayudame a serte fiel

F            G       Am        F            G    C
cambiame y hasme otra vez    y ayudame a serte fiel

[SE REPITE LA TABLATURA]

////transcripcion en Sol mayor////

e|---------------------------------------------------------------|
B|-----3---3---1--0----------------------------------------------|
G|--------------------2----4-----4----2----0-0---2d4----2----0--0|
D|---0---0------------0------------------------------------------|
A|---------------------------------------------------------------|
E|-3-------------------------------------------------------------|


G                D    Em       C            D   G
Cristo moriste en una cruz     Resucitaste con poder
 
G              D    Em             C            D  G
perdona mis pecados hoy        se mi señor mi salvador

C           D       Em        C            D    Em
cambiame y hasme otra vez    y ayudame a serte fiel

C            D       Em        C          D Dsus   G
cambiame y hasme otra vez    y ayudame a serte fiel

[SE REPITE LA TABLATURA]


te recomiendo que hagas el acorde sol asi: 

e|-3
B|-3
G|-0
D|-0
A|-x
E|-3

Dsus

e|-3
B|-3
G|-2
D|-0
A|-x
E|-x



Keywords / Palabras clave: Poema de Salvacion, Marcos Witt, letras, letra, acordes, canciones, cancion, grupo, banda, cantante, tablatura, partitura, tocar con guitarra, armónica, teclado, bajo, ejecutar, bajar, mp3, música, chords, lyrics, versión, cover, piano, acrodes, acordes de Poema de Salvacion, Marcos Witt

Inicio | Artistas | Recursos | Buscar | AGREGA TU TABLATURA A 10ACORDES | Contacto

www.10acordes.com.ar - 2014© - 2014-04-20 20:14:51