letra, letras, acorde, acordes, tablatura, tablaturas, partitura, partituras de la canción Poeta de ningun lugar de Arturo Meza, 28060

Poeta de ningun lugar de Arturo Meza

Colaboración de Ruben Morales Morales (TAB)

(bienvenidosalapocalipsis @ hotmail.com)          (Visitas: 1525)

Ver Poeta de ningun lugar de Arturo Meza en vista para impresión



¿Dudas de cómo es un acorde? Visitar la página cómo formar acordes en guitarra


E|-10-10--9-7-5------|-------------5----|-10-10--9-7-5---------|
B|-10-10-10-7-7-7----|-----5---5-7---7--|-10-10-10-7-7-7-------|
G|--------------7----|-7-7---7----------|--------------7-------|
D|-------------------|------------------|----------------------|
A|-------------------|------------------|----------------------|
E|-------------------|------------------|----------------------|


E|---------------5------|----5-7-5-7----9---9--|
B|-----5-----5-7---7----|--7-7-7-7-7---10--10--|
G|-7-7---7-7------------|--7-------------------|
D|----------------------|----------------------|
A|----------------------|----------------------|
E|----------------------|----------------------|


E|-14-12-10-10----|
B|-14-12-12-10----|
G|----------------|
D|----------------|
A|----------------|
E|----------------|



                 D
Era un extraño más
	  Bm
En el callejón
		D
Alcohólico sin luz
		Bm
Poeta de ningún lugar
	G	A	     D
De musas perdidas en el muladar

                D
Era un extraño más
	       Bm
Lejos del corazón de Dios
		D
Estúpido e insolente
		Bm
Parásito y vulgar
	G     A		      D
Y tu amor llegó como bendición


	  Bm 
No hubo tiempo no hubo tiempo
	F#m
para saber quien era conocerte
      G
pero tu presencia
	A               D
fue igual que una canción


     F#m	
Como una canción soñada
	Bm
En el fondo del mar
	F#m
Y mi soledad amarga
	Bm
Se quemó en tu piel 
	D          G	     G#m
Al tocarte, al sentirte nena     reviví

	SE REPITE

Solo

E|-10-10--9-7-5------|-------------5----|-10-10--9-7-5---------|
B|-10-10-10-7-7-7----|-----5---5-7---7--|-10-10-10-7-7-7-------|
G|--------------7----|-7-7---7----------|--------------7-------|
D|-------------------|------------------|----------------------|
A|-------------------|------------------|----------------------|
E|-------------------|------------------|----------------------|


E|---------------5------|----5-7-5-7----9---9--|
B|-----5-----5-7---7----|--7-7-7-7-7---10--10--|
G|-7-7---7-7------------|--7-------------------|
D|----------------------|----------------------|
A|----------------------|----------------------|
E|----------------------|----------------------|


E|-14-12-10-10----|
B|-14-12-12-10----|
G|----------------|
D|----------------|
A|----------------|
E|----------------|



Keywords / Palabras clave: Poeta de ningun lugar, Arturo Meza, letras, letra, acordes, canciones, cancion, grupo, banda, cantante, tablatura, partitura, tocar con guitarra, armónica, teclado, bajo, ejecutar, bajar, mp3, música, chords, lyrics, versión, cover, piano, acrodes, acordes de Poeta de ningun lugar, Arturo Meza

Inicio | Artistas | Recursos | Buscar | AGREGA TU TABLATURA A 10ACORDES | Contacto

www.10acordes.com.ar - 2014© - 2014-07-28 02:53:13