letra, letras, acorde, acordes, tablatura, tablaturas, partitura, partituras de la canción Que lloro de Sin Bandera, 29478

Que lloro de Sin Bandera

Colaboración de José Antonio Campos (TAB)

(jose8_9antonio @ hotmail.com)          (Visitas: 11331)

Ver Que lloro de Sin Bandera en vista para impresión



¿Dudas de cómo es un acorde? Visitar la página cómo formar acordes en guitarra

Este es el solo de esta rola. va con un poco de 
distorcion, pero si lo tocas normal se olle bien,
hasta con acustica. Esto viene siendo aproximadamente
a los 2:55 min. de la cancion. Agarrenle la onda y se 
olle chingon y aparte esta facil.

e|----------------------------------------------------
B|----------------------------------------------------
G|-------2---2---2---2----4---4---4/6-6-4-4-2-2/4-2-2-
D|--4444---4---4---4---46---6---6---------------------
A|----------------------------------------------------
E|----------------------------------------------------

e|----------------------------------------------------
B|----------------------------------------------------
G|-2-2-2-2/1-1/4-4-4-4-4/2-2-2-1-1-2-2-2-2/1-1-1-2/4--
D|----------------------------------------------------
A|----------------------------------------------------
E|----------------------------------------------------

e|-----------------------5-5/7-9-9-9-9-9/7-5-5~~~-----
B|-----------------5-5/7------------------------------
G|-4-4/2-4/6-6-6-6------------------------------------
D|----------------------------------------------------
A|----------------------------------------------------
E|----------------------------------------------------

Un saludo para cd obregon son. mex.
y esta cancion se la dedico a una chaparrita muy bonita
que la amo.!



Keywords / Palabras clave: Que lloro, Sin Bandera, letras, letra, acordes, canciones, cancion, grupo, banda, cantante, tablatura, partitura, tocar con guitarra, armónica, teclado, bajo, ejecutar, bajar, mp3, música, chords, lyrics, versión, cover, piano, acrodes, acordes de Que lloro, Sin Bandera

Inicio | Artistas | Recursos | Buscar | AGREGA TU TABLATURA A 10ACORDES | Contacto

www.10acordes.com.ar - 2014© - 2014-08-23 08:06:08