letra, letras, acorde, acordes, tablatura, tablaturas, partitura, partituras de la canción Que paso señor presidente de Notoken, 29592

Que paso señor presidente de Notoken

Colaboración de Napoleón Vargas (TAB)

(rigor_metal_mortis @ yahoo.com.mx)          (Visitas: 2773)

Ver Que paso señor presidente de Notoken en vista para impresión



¿Dudas de cómo es un acorde? Visitar la página cómo formar acordes en guitarra

Aqui transcribo otra canción de los Notoken,
me parece que si está bien, algún error o alguna 
cosa, me escriben al E-mail.

INTRO
         RE                 LAm
e|-2----2----2----2----0----0----0----0------
B|--3----3----3----3----1----1----1----------
G|---2----2----2----2----2----2----2---------
D|----0----0----0----0----2----2----2--------
A|-------------------------------------------
E|-------------------------------------------

          DO            SOL           LAm
e|-----------0-----------3------------0------3/0--0--
B|-------1----1---1---2---2---2----1----1------------
G|---------0----0--------0---0-------2----2-----2----   X 2
D|------------------------------------------2-------- 
A|--0-2-3-------------------------0------------------
E|-------------------3-------------------------------

       REm                LAm
e|-----1------3/1---1------0-------3/0---0--------
B|-------3-------------------1--------------------
G|---2-----2------2------------2-------2----------  X 2
D|-0---------------------2-------2----------------  
A|---------------------0--------------------------
E|------------------------------------------------

     DO		      SOL	     LAm
e|-----------0-----------3------------0------3/0--0--
B|-------1----1---1---2---2---2----1----1------------
G|---------0----0--------0---0-------2----2-----2----   X 2
D|------------------------------------------2-------- 
A|--0-2-3-------------------------0------------------
E|-------------------3-------------------------------


e|---------------------------------------------------
B|---------------------------------------------------
G|--5--5--5------------------------------------------   X 4
D|--5--5--5--5--5--5-/-7--7--7--x-x--7--x-x--7-------
A|--3--3--3--5--5--5-/-7--7--7--x-x--7--x-x--7-------
E|-----------3--3--3-/-5--5--5--x-x--5--x-x--5-------

VERSO

'¿Que paso Señor Presidente, que paso?...'
e|---------------------------------------------------
B|---------------------------------------------------
G|--5--5--5------------------------------------------   X 4
D|--5--5--5--5--5--5-/-7--7--7--x-x--7--x-x--7-------
A|--3--3--3--5--5--5-/-7--7--7--x-x--7--x-x--7-------
E|-----------3--3--3-/-5--5--5--x-x--5--x-x--5-------

PARTE RÁPIDA:
Esta parte va con el verso y la parte rápida. Escuchen la canción 
para que vean como van las 

partes con los tiempos. Esto de aquí abajo se repite, hasta que se
hace más lento.

e|-----------------------------------------------------------------
B|-----------------------------------------------------------------
G|-5-5-5-5-5-5-5---------------------------------------------------   
D|-5-5-5-5-5-5-5--5-5-5-5-5-5--7-7-7-7-7-7-7-7-7-7-7-7-7-7-7-7-7-7-
A|-3-3-3-3-3-3-3--5-5-5-5-5-5--7-7-7-7-7-7-7-7-7-7-7-7-7-7-7-7-7-7-
E|----------------3-3-3-3-3-3--5-5-5-5-5-5-5-5-5-5-5-5-5-5-5-5-5-5-

FINAL:
'ahhhh ahhhhh ahhhh....'

e|---------------------------------------------------
B|---------------------------------------------------
G|--5--5--5---------------------------------------5--   
D|--5--5--5--5--5--5-/-7--7--7--x-x--7--x-x--7----5--
A|--3--3--3--5--5--5-/-7--7--7--x-x--7--x-x--7----3--
E|-----------3--3--3-/-5--5--5--x-x--5--x-x--5-------


Eso es todo, el arpegio del intro puede cambiar, ahi 
tienen que tocarle, para saber como suena 
mejor.

Nos vemos.



Keywords / Palabras clave: Que paso señor presidente, Notoken, letras, letra, acordes, canciones, cancion, grupo, banda, cantante, tablatura, partitura, tocar con guitarra, armónica, teclado, bajo, ejecutar, bajar, mp3, música, chords, lyrics, versión, cover, piano, acrodes, acordes de Que paso señor presidente, Notoken

Inicio | Artistas | Recursos | Buscar | AGREGA TU TABLATURA A 10ACORDES | Contacto

www.10acordes.com.ar - 2014© - 2014-09-01 15:12:28