letra, letras, acorde, acordes, tablatura, tablaturas, partitura, partituras de la canción Quiero (más de ti) de Rojo, 30040

Quiero (más de ti) de Rojo

Colaboración de LUIS ESPERON (TAB)

(luchoesp84 @ yahoo.com.ar)          (Visitas: 530)

Ver Quiero (más de ti) de Rojo en vista para impresión



¿Dudas de cómo es un acorde? Visitar la página cómo formar acordes en guitarra

 
esto va dos veces

e>---------------------------------------
B>---------------------------------------
G>---3-3-3-3s5-5-5s3-2-3-2-3--0-0--------
D>---------------------------------5-3-3-
A>---------------------------------------
E>---------------------------------------

y luego esto....

e>------------------8-8-8--6-6-6--3-3-3--1-0-
B>------------------8-8-8--6-6-6--3-3-3--1-0-
G>---3-3-3--5s7--5---------------------------
D>-------------------------------------------
A>-------------------------------------------
E>-------------------------------------------

e>------------------8-8-8--6-6-6--3-3----
B>------------------8-8-8--6-6-6--3-3----
G>---3-3-3--5s7--5-----------------------
D>---------------------------------------
A>---------------------------------------
E>---------------------------------------

y en el final,cuando comienza la guitarra acustica

e>------------------------------
B>---10-10-11--13-13-13p11p10---
G>------------------------------
D>------------------------------
A>------------------------------
E>------------------------------

espero que les sirva....
DIOS les bendiga....

LUCHO....



Keywords / Palabras clave: Quiero (más de ti), Rojo, letras, letra, acordes, canciones, cancion, grupo, banda, cantante, tablatura, partitura, tocar con guitarra, armónica, teclado, bajo, ejecutar, bajar, mp3, música, chords, lyrics, versión, cover, piano, acrodes, acordes de Quiero (más de ti), Rojo

Inicio | Artistas | Recursos | Buscar | AGREGA TU TABLATURA A 10ACORDES | Contacto

www.10acordes.com.ar - 2014© - 2014-10-31 18:02:46