letra, letras, acorde, acordes, tablatura, tablaturas, partitura, partituras de la canción Sabor a mi de los Panchos, 31480

Sabor a mi de los Panchos

Colaboración de Israel Ochoa (TAB)

(chikillo_lfc @ hotmail.com)          (Visitas: 12827)

Ver Sabor a mi de los Panchos en vista para impresión



¿Dudas de cómo es un acorde? Visitar la página cómo formar acordes en guitarra

Este es el requinto de sabor a mi, es el requinto original, sin menospreciar
la anterior, espero les guste.


 Sabor a mi

e|-9--10--12--10--9----9-----9--9--9-|
B|------------------12---------------|
G|-----------------------11----------|
D|-----------------------------------|
A|-----------------------------------|
E|-----------------------------------|

e|----9--10--9-------------------------|
B|-12----------12--10--12---12--12--12-|            
G|------------------------9------------|   
D|-------------------------------------|
A|-------------------------------------|
E|-------------------------------------|

e|------------------------|---------------------|-------------|
B|----10--12--10--9----10-|----9--10--9-------9-|----10--9--—-|            
G|-11---------------11----|-11----------11--9---|-11-------11-|   
D|------------------------|---------------------|-------------|
A|------------------------|---------------------|-------------|
E|------------------------|---------------------|-------------|

e|-------------------------|-------------------------|
B|-12--10--12--------------|-12--10--12--------------|
G|-------------12--12--12--|-------------12--12--12--|
D|-------------------------|-------------------------|
A|-------------------------|-------------------------|
E|-------------------------|-------------------------|

e|-9------------9------------9---------|
B|---10--12--10---10--12--10---10--12--|
G|-------------------------------------|
D|-------------------------------------|
A|-------------------------------------|
E|-------------------------------------|

e|----------9---------9--------------9--10--9--10--9--10--9-|
B|----9--10-----9--10-----9--10--12-----------------------—-|
G|-11--------11--------11-----------------------------------|
D|----------------------------------------------------------|
A|----------------------------------------------------------|
E|----------------------------------------------------------|

se la dedico a la Niña Chula, a ver si asi suben mis puntos.



Keywords / Palabras clave: Sabor a mi, los Panchos, letras, letra, acordes, canciones, cancion, grupo, banda, cantante, tablatura, partitura, tocar con guitarra, armónica, teclado, bajo, ejecutar, bajar, mp3, música, chords, lyrics, versión, cover, piano, acrodes, acordes de Sabor a mi, los Panchos

Inicio | Artistas | Recursos | Buscar | AGREGA TU TABLATURA A 10ACORDES | Contacto

www.10acordes.com.ar - 2014© - 2014-10-26 01:47:51