letra, letras, acorde, acordes, tablatura, tablaturas, partitura, partituras de la canción Secreto de amor de Joan Sebastian, 31932

Secreto de amor de Joan Sebastian

Colaboración de Luis Miguel (TAB)

(LMFS100 @ Hotmail.com)          (Visitas: 46314)

Ver Secreto de amor de Joan Sebastian en vista para impresión



¿Dudas de cómo es un acorde? Visitar la página cómo formar acordes en guitarra

INTRO:  
E|--------------------4---9--8---9--4--5-4--2--4---2--0--2---0---------------|
B|--------------------5--10--9--10--5--7-5--4--7---4--2--4---2-------5-------|
G|-------------------------------------------------------------------6-------|
D|--------1-2-4-6----------------------------------------------------6-------|
A|------4--------------------------------------------------------------------|
E|---4-----------------------------------------------------------------------|


Dm                      Gm    C7  
   TE VOY A CAMBIAR EL NOMBRE
    (REQUINTO)
E|---------4-2-----------------|
B|-----2-------2--5-----2--4---|
G|---2-----------------2-------|
D|-4------------------4--------|
A|-----------------------------|
E|-----------------------------|

                Dm
   PARA GUARDAR EL SECRETO
    (REQUINTO)
E|--------------------------|
B|-----2---4--5----7----4---|
G|---1-----------6----6-----|
D|-2------------------------|
A|--------------------------|
E|--------------------------|

                      Gm   A7 
   PORQUE TE AMO Y ME AMAS
    (REQUINTO)
E|-------------------------------|
B|----------------------------4--|
G|-----------5---5-----6---------|
D|-----6-------------6-----6-----|
A|---6---------------------------|
E|-4-----------------------------|


                           Dm
   Y A ALGUIEN DEBEMOS RESPETO
    (REQUINTO)
E|----------------------2----|
B|---------4---5---7----4----|
G|-------6--------------4----|
D|---6-----------------------|
A|-4-------------------------|
E|---------------------------|


                        Gm    C7
   TE VOY A CAMBIAR EL NOMBRE
                           Dm
   EN BASE A LO QUE HAS TRAIDO
                       Gm   A7
   AHORA TE LLAMARAS GLORIA
                       Dm
   LO TIENES BIEN MERECIDO


                         A7
   Y HEMOS DE DARNOS UN BESO
                     Dm 
   ENCERRADOS EN LA LUNA
                        G7
   SECRETO AMOR TE CONFIESO
                        C7
   TE QUIERO COMO A NINGUNA

     
      	    G7b9         Gm    C7
   Y PUEDO CAMBIARTE EL NOMBRE
             	         Dm
   PERO NO CAMBIO LA HISTORIA
                       Gm   A7
   TE LLAMES COMO TE LLAMES
                        Dm
   PARA MI TU ERES LA GLORIA

                     A7
   ERES SECRETO DE AMOR (secreto)
                     Dm
   ERES SECRETO DE AMOR (oye)
                     A7
   ERES SECRETO DE AMOR (secreto)
                     Dm 
   ERES SECRETO DE AMOR

                   
          		      A7
   DELANTE DE LA GENTE NO ME MIRES
                       Dm
   NO SUSPIRES NO ME LLAMES AUNQUE ME AMES 
                                A7
   DELANTE DE LA GENTE SOY TU AMIGO
                       Dm
   HOY TE DIGO QUE CASTIGO


                     A7
   ERES SECRETO DE AMOR (secreto)
                     Dm
   ERES SECRETO DE AMOR


                        Gm    C7 
   TE VOY A CAMBIAR EL NOMBRE
            	       Dm
   PARA GUARDAR EL SECRETO
            	      Gm   A7
   PORQUE TE AMO Y ME AMAS
                      Dm
   NO DEBO SER INDISCRETO

 
			      A7
   DELANTE DE LA GENTE NO ME MIRES 
                       Dm
   NO SUSPIRES NO ME LLAMES AUNQUE ME AMES 
                                A7
   DELANTE DE LA GENTE SOY TU AMIGO
                       Dm
   HOY TE DIGO QUE CASTIGO 
   (que dolor,que dolor)

                     A7
   ERES SECRETO DE AMOR (secreto)
                     Dm
   ERES SECRETO DE AMOR


	    G7b9         Gm    C7
   Y PUEDO CAMBIARTE EL NOMBRE
                         Dm
   PERO NO CAMBIO LA HISTORIA
                       Gm   A7
   TE LLAMES COMO TE LLAMES
                        Dm
   PARA MI TU ERES LA GLORIA 


                     A7
   ERES SECRETO DE AMOR 
                     Dm
   ERES SECRETO DE AMOR
                     A7
   ERES SECRETO DE AMOR (secreto)
                     Dm   A7-Dm
   ERES SECRETO DE AMOR



Keywords / Palabras clave: Secreto de amor, Joan Sebastian, letras, letra, acordes, canciones, cancion, grupo, banda, cantante, tablatura, partitura, tocar con guitarra, armónica, teclado, bajo, ejecutar, bajar, mp3, música, chords, lyrics, versión, cover, piano, acrodes, acordes de Secreto de amor, Joan Sebastian

Inicio | Artistas | Recursos | Buscar | AGREGA TU TABLATURA A 10ACORDES | Contacto

www.10acordes.com.ar - 2014© - 2014-09-02 15:33:38