letra, letras, acorde, acordes, tablatura, tablaturas, partitura, partituras de la canción she will be loved de maroon 5, 41623

she will be loved de maroon 5

Colaboración de saque una parte nomas pero creo q esta bien Y LO DIVIDI EN PARTES ESPERO QUE LO ACEPTEN PORQUE SOY NUEVA EN ESTO Y LLEVO (TAB)

(chechuline_francois @ hotmail.com)          (Visitas: )

Ver she will be loved de maroon 5 en vista para impresión



¿Dudas de cómo es un acorde? Visitar la página cómo formar acordes en guitarra

1º PARTE
e|---------0------------------0--------------0---------------------------|
B|-3-3-3-3---2-0------3-3-3-3---2-0--3-3-3-3---2-0------3-3-3-3-3-2---0--|
G|---------------2-0-------------------------------2-0--------------2----|
D|-----------------------------------------------------------------------|
A|-----------------------------------------------------------------------|
E|-----------------------------------------------------------------------|
2º PARTE
e|-------0---0---0-----0-0-2-------0---0---0-----0-0-2-|
B|-3-3-3---3---3---3-3-------3-3-3---3---3---3-3-------|
G|-----------------------------------------------------|
D|-----------------------------------------------------|
A|-----------------------------------------------------|
E|-----------------------------------------------------|
3º PARTE
e|--------------------------------------0-------------------------------
B|-3-3-3-3-3-2-3-3-3--3-3-3-3-3-3-3-2-3---3-3-3-3-3-2-3-3--3-3-3-3-3-3-2-G|----------------------------------------------------------------------
D|----------------------------------------------------------------------
A|----------------------------------------------------------------------
E|----------------------------------------------------------------------

e|-----|
B|-3-3-|
G|-----|
D|-----|
A|-----|
E|-----|
4º PARTE
e|-----5--2-2------5--2-2-0---0--|
B|-3-3---------3-3----------3----|
G|-------------------------------|
D|-------------------------------|
A|-------------------------------|
E|-------------------------------|



Keywords / Palabras clave: she will be loved, maroon 5, letras, letra, acordes, canciones, cancion, grupo, banda, cantante, tablatura, partitura, tocar con guitarra, armónica, teclado, bajo, ejecutar, bajar, mp3, música, chords, lyrics, versión, cover, piano, acrodes, acordes de she will be loved, maroon 5

Inicio | Artistas | Recursos | Buscar | AGREGA TU TABLATURA A 10ACORDES | Contacto

www.10acordes.com.ar - 2014© - 2014-10-31 05:44:25