letra, letras, acorde, acordes, tablatura, tablaturas, partitura, partituras de la canción Si amaneciera de Saratoga, 32695

Si amaneciera de Saratoga

Colaboración de Sergio Beltran (TAB)

(dispositivointrauterino @ hotmail.com)          (Visitas: 21399)

Ver Si amaneciera de Saratoga en vista para impresión



¿Dudas de cómo es un acorde? Visitar la página cómo formar acordes en guitarra

|-----------------------------------------------------------|
|------10-9-10p9-----------------------10-------------------|
|----------------10-10h11-11p10p9-9-11----9--9----11-9------|
|-9s11-----------------------------------------11-----------|
|-----------------------------------------------------------|
|-----------------------------------------------------------|

|------------------------------------7-7-----7--7-----------|
|------10-10------10-----10--------------9----9-------------|
|-----------11------11-----11----8s9-------9---9------------|
|-11s12--------12-----12-----12-----------------------------|
|-----------------------------------------------------------|
|-----------------------------------------------------------|

|-----------------------------------------|
|-----10-10-12-12h14-14-14-15-12-12h14-14-|
|-----------------------------------------|
|-9s11------------------------------------|
|-----------------------------------------|
|-----------------------------------------|

|-14-14-12-12-----------------------------------------------|
|-------------15-15-14-14-12-12-10-10-9-9-------9----9------|
|-----------------------------------------11-11---11---11-9-|
|-----------------------------------------------------------|
|-----------------------------------------------------------|
|-----------------------------------------------------------|

|--------------|
|-12-10-9------|
|---------11-9-|
|--------------|
|--------------|
|--------------|


 Lam					Sol
Ahora que mi voz se ha convertido 
               Fa
En apenas un suspiro
      Mi
Debo descansar
Lam					Sol
Hoy que en la mitad de mi camino 
			    Fa
La evidencia me ha vencido
	  Mi
Y me ha hecho llorar

Lam		Sol		Fa
Sé que el tiempo curará
	  Mi		   Lam
Aunque nada siga igual
	  Sol		   Fa
No me quiero resignar
	Mi
No olvidaré

Yo que hasta el momento ignoraba
El punto en que se hallaba
Esa enfermedad
Siento que la vida es como un hilo 
Que se corta de improviso
Y sin avisar

Y en la oscura habitación
Necesito oír tu voz
Ahora duermes junto a mí
Esperaré

Fa#m	   Mi		 Si
Si amaneciera sin ti 
   Mi			    Re
Yo no sé qué sería de mí
	  Mi					Fa#m
Hoy la muerte me ha mostrado ya sus cartas
	 Mi		  Si
Y no entiendo la jugada
Mi		Re
Trato de salir 
La		   Mi
No quiero admitir
	  Fa#m
Mi soledad

Duermo apenas cinco o seis minutos
Suficientes para hundirme 
En la tempestad
Los demonios que hay bajo la cama
Esta noche no se callan 
No me dejarán 

El reloj marca las seis 
Lo más duro es el final 
Y la luz se posará
En el cristal 

Huyo a veces pienso en otra cosa 
Mi cerebro reacciona 
No me deja en paz 
Y de nuevo vuelve a sacudirme
Ese frío incontenible 
Que es la realidad

El primer rayo de sol 
Me iluminará el corazón
Te distingo junto a mí 
Mi salvación

Fa#5    Mi5 	Si5
Si amaneciera sin ti 
   Mi5   		     Re5  Si5 Do#5 Re5
Yo no sé qué sería de mí
	  Re5		Do#5   Si5  La5		Fa#5
Hoy la muerte me ha mostrado ya sus cartas
	 Mi5	  	Si5
Y no entiendo la jugada
Mi5		Re5
Trato de salir 
La5		  Si5
No quiero admitir
	  Fa#5
Mi soledad



Esto es igual que los versos pero en quintas y con la distorsión

Y en la oscura habitación
Necesito oír tu voz
Ahora duermes junto a mí
Esperaré

El primer rayo de sol 
Me iluminará el corazón
Te distingo junto a mí 
Mi salvación

Fa#5    Mi5 	Si5
Si amaneciera sin ti 
   Mi5   		     Re5  Si5 Do#5 Re5
Yo no sé qué sería de mí
	  Re5		Do#5   Si5  La5		Fa#5
Hoy la muerte me ha mostrado ya sus cartas
	 Mi5	  	Si5
Y no entiendo la jugada
Mi5		Re5
Trato de salir 
La5		  Si5
No quiero admitir
	  Fa#5
Mi soledad



Keywords / Palabras clave: Si amaneciera, Saratoga, letras, letra, acordes, canciones, cancion, grupo, banda, cantante, tablatura, partitura, tocar con guitarra, armónica, teclado, bajo, ejecutar, bajar, mp3, música, chords, lyrics, versión, cover, piano, acrodes, acordes de Si amaneciera, Saratoga

Inicio | Artistas | Recursos | Buscar | AGREGA TU TABLATURA A 10ACORDES | Contacto

www.10acordes.com.ar - 2014© - 2014-07-22 03:59:34