letra, letras, acorde, acordes, tablatura, tablaturas, partitura, partituras de la canción Sin Ella de José José, 33467

Sin Ella de José José

Colaboración de german ahumada (TAB)

(gere_walsh @ hotmail.com)          (Visitas: 871)

Ver Sin Ella de José José en vista para impresión



¿Dudas de cómo es un acorde? Visitar la página cómo formar acordes en guitarra

Pues esta cancion esta muy padre, lleva las pisaduras de abajo
en toda la cancion mas algunos cambios. A tocar:


Intro:

1. --------0--------------|-------------|-5-----5-----7-|-3-----5----|
2. ------3-------------12-|-------------|---7-5---4-7---|---3-5---7--|
3. --0-4-----4-7---4-7----|---7-9-7---7-|---------------|------------|
4. --------------5--------|-7-------9---|---------------|------------|
5. -----------------------|-------------|---------------|------------|
6. -----------------------|-------------|---------------|------------|



 G                Em               Am             D7          
Toda la noche espere, que viniera ella, pero no llego,
1. --------0--------------|-------------|-5-----5-----7-|-3-----5----|
2. ------3-------------12-|-------------|---7-5---4-7---|---3-5---7--|
3. --0-4-----4-7---4-7----|---7-9-7---7-|---------------|------------|
4. --------------5--------|-7-------9---|---------------|------------|
5. -----------------------|-------------|---------------|------------|
6. -----------------------|-------------|---------------|------------|

y sollozando ahora bien que se, lo que es pasar un dia mas sin ella.
1. --------0--------------|-------------|-5-----5-----7-|-3-----5----|
2. ------3-------------12-|-------------|---7-5---4-7---|---3-5---7--|
3. --0-4-----4-7---4-7----|---7-9-7---7-|---------------|------------|
4. --------------5--------|-7-------9---|---------------|------------|
5. -----------------------|-------------|---------------|------------|
6. -----------------------|-------------|---------------|------------|

G Em Am D7- G Em Am D7

Un dia mas sin ella,
1. --------0--------------|-------------|-5-----5-----7-|-3-----5----|
2. ------3-------------12-|-------------|---7-5---4-7---|---3-5---7--|
3. --0-4-----4-7---4-7----|---7-9-7---7-|---------------|------------|
4. --------------5--------|-7-------9---|---------------|------------|
5. -----------------------|-------------|---------------|------------|
6. -----------------------|-------------|---------------|------------|

G         Em                Am            D7
No tiene caso llorar, si no voy a poder llenar el lugar,
1. --------0--------------|-------------|-5-----5-----7-|-3-----5----|
2. ------3-------------12-|-------------|---7-5---4-7---|---3-5---7--|
3. --0-4-----4-7---4-7----|---7-9-7---7-|---------------|------------|
4. --------------5--------|-7-------9---|---------------|------------|
5. -----------------------|-------------|---------------|------------|
6. -----------------------|-------------|---------------|------------|


que hoy vacio esta sin su calor, que triste es pasar un dia mas sin ella.

G Em Am D7- G Em Am D7

Un dia mas sin ella
1. --------0--------------|-------------|-5-----5-----7-|-3-----5----|
2. ------3-------------12-|-------------|---7-5---4-7---|---3-5---7--|
3. --0-4-----4-7---4-7----|---7-9-7---7-|---------------|------------|
4. --------------5--------|-7-------9---|---------------|------------|
5. -----------------------|-------------|---------------|------------|
6. -----------------------|-------------|---------------|------------|

CORO:

G            D                Em               C
Un dia la conoci, y con ella fui a un mundo feliz,
 G                   Bm                   C
me entrego su amor, amor que despues, llorando extrañe,
    D                   Em  
pasando un dia mas sin ella.
1. --------0--------------|-------------|-5-----5-----7-|-3-----5----|
2. ------3-------------12-|-------------|---7-5---4-7---|---3-5---7--|
3. --0-4-----4-7---4-7----|---7-9-7---7-|---------------|------------|
4. --------------5--------|-7-------9---|---------------|------------|
5. -----------------------|-------------|---------------|------------|
6. -----------------------|-------------|---------------|------------|


G                  Em              Am                      D7
Es tan hermoso el amor, que nos elvuelve a los dos, en su suave calor,
1. --------0--------------|-------------|-5-----5-----7-|-3-----5----|
2. ------3-------------12-|-------------|---7-5---4-7---|---3-5---7--|
3. --0-4-----4-7---4-7----|---7-9-7---7-|---------------|------------|
4. --------------5--------|-7-------9---|---------------|------------|
5. -----------------------|-------------|---------------|------------|
6. -----------------------|-------------|---------------|------------|

G                     Em               Am                  D7
pero ese calor se convierte en dolor, rompe mi corazon si paso,
1. --------0--------------|-------------|-5-----5-----7-|-3-----5----|
2. ------3-------------12-|-------------|---7-5---4-7---|---3-5---7--|
3. --0-4-----4-7---4-7----|---7-9-7---7-|---------------|------------|
4. --------------5--------|-7-------9---|---------------|------------|
5. -----------------------|-------------|---------------|------------|
6. -----------------------|-------------|---------------|------------|

                G
un dia mas sin ella.

G Em Am D7- G Em Am D7

G                       Em     Am        D7     G          Em
Si paso un dia mas sin ella, morire sin ella, llorare sin ella,
1. --------0--------------|-------------|-5-----5-----7-|-3-----5----|
2. ------3-------------12-|-------------|---7-5---4-7---|---3-5---7--|
3. --0-4-----4-7---4-7----|---7-9-7---7-|---------------|------------|
4. --------------5--------|-7-------9---|---------------|------------|
5. -----------------------|-------------|---------------|------------|
6. -----------------------|-------------|---------------|------------|
 Am         D7     G          Em    Am         D7   
morire sin ella, llorare sin ella, morire sin ella.
1. --------0--------------|-------------|-5-----5-----7-|-3-----5----|
2. ------3-------------12-|-------------|---7-5---4-7---|---3-5---7--|
3. --0-4-----4-7---4-7----|---7-9-7---7-|---------------|------------|
4. --------------5--------|-7-------9---|---------------|------------|
5. -----------------------|-------------|---------------|------------|
6. -----------------------|-------------|---------------|------------|

(Se repite las pisadas otra vez....)


Pues ahi estuvo. Dedicada a la mujer que mas quiero. 251291.
Suerte!!!



Keywords / Palabras clave: Sin Ella, José José, letras, letra, acordes, canciones, cancion, grupo, banda, cantante, tablatura, partitura, tocar con guitarra, armónica, teclado, bajo, ejecutar, bajar, mp3, música, chords, lyrics, versión, cover, piano, acrodes, acordes de Sin Ella, José José

Inicio | Artistas | Recursos | Buscar | AGREGA TU TABLATURA A 10ACORDES | Contacto

www.10acordes.com.ar - 2014© - 2014-10-31 23:55:42