letra, letras, acorde, acordes, tablatura, tablaturas, partitura, partituras de la canción Suspenso de Los Nocheros, 35098

Suspenso de Los Nocheros

Colaboración de cesar fabian vilca (TAB)

(fabian_0190 @ hotmaik.com)          (Visitas: 3775)

Ver Suspenso de Los Nocheros en vista para impresión



¿Dudas de cómo es un acorde? Visitar la página cómo formar acordes en guitarra

INTRO*
                                                                   
---------------------9-7-9/11-10~11--9\7------------------2---------------2------1ra
-----------------9-7---------------------9-7\6/7------4-----4---4-------0---0----
---------6---9-8----------------------------------------3-----3-------0-------0--
---6-8-9---9----------------------------------------4---------------0------------
-9------------------------------------------------2---------------2--------------
---------------------------------------------------------------------------------6ta

-2-----0-----0-------------2--------------------------5/7-7-----7-----7/9-9---7--1ra
---0-----0-----0-------4---------------------7-8--5-8---------8---5-8----------7-
-----0-----0-----0-------3-------------6-8-9----0--------------------------------
---------------------4-----------6-8-9-------------------------------------------
-------------------2-----------9----------------------------7---------------7----
---------------------------------------------------------------------------------6ta
                                                *3
-7-----6---4-6-7-7-------7------7-----6---4-6-7-7-------7---6-4-4-----4----------1ra
---0-----0-----------0------------0-----0-----------0-----0---------4------------
-8---8-----------------8---8----8---8-----------------9-----------6-------6------
-------------------6-------------------------------------------------------------
-----------------7--------------------------------11------------6-------6--------
------------------------------------------------9--------------------------------6ta

-6-4--------------6-1ra
-----8-----8-----8--
---------6------6---
-------8-------8----
-----6--------6-----
--------------------6ta

1) Para enganchar el Do#m hacemos lo siguiente sin dejar de hacer cejilla

   (Do#m)
-4--5---4----1ra
---7-----5-5-
------6---6--
-----6-6-----
----4--------5ta   y enganchamos el Sol#m que esta en el paso 2

2)Después del Do#m sigue un Sol#m al se le agrega la siguiente nota 
Sib en la 1er cuerda, asi:

(Sol#m)
----6-4------1ra
---4---4-4---
--4-----4----
-------------
-------------
-4-----------6ta   e inmediatamente enganchamos el Mi
P/D: BUENO A ESTE PUNTEO SE LO PUEDE HACER DE MUCHAS FORMAS Y ESPERO QUE LO DISFRUTEN 
ESTA MUY FACIL ASI QUE A PONERLE GANAS
SALUDOS CESAR FABIAN VILCA.CUALQYIER DUDA ESCRIBANME A  fabian_0190arrobahotmail.com



Keywords / Palabras clave: Suspenso, Los Nocheros, letras, letra, acordes, canciones, cancion, grupo, banda, cantante, tablatura, partitura, tocar con guitarra, armónica, teclado, bajo, ejecutar, bajar, mp3, música, chords, lyrics, versión, cover, piano, acrodes, acordes de Suspenso, Los Nocheros

Inicio | Artistas | Recursos | Buscar | AGREGA TU TABLATURA A 10ACORDES | Contacto

www.10acordes.com.ar - 2014© - 2014-11-27 23:35:42