letra, letras, acorde, acordes, tablatura, tablaturas, partitura, partituras de la canción Tan solo de los Piojos, 35307

Tan solo de los Piojos

Colaboración de Pablo Ernesto Asero

(pablito_kpo_89 @ hotmail.com)          (Visitas: 42647)

Ver Tan solo de los Piojos en vista para impresión



¿Dudas de cómo es un acorde? Visitar la página cómo formar acordes en guitarra

            Tan Solo - Los Piojos \()/

Intro:
 Bajo                                        2 veces|
e|--------------------------------------------------|
B|--------------------------------------------------|
G|--------------------------------------------------|
D|------------------------10------------------------|
A|-10---10-------10-9-8--8--8------------7-7-8-9-10-|
E|---------10-10--------------10-9-8---8------------|

 Armónica                                    2 veces|
e|-----------1-------------1-----------1------------|
B|---3-3-2-3-------3-3-2-3-----3-3-2-3-----1--------|
G|-0------------0------------0-----------0---3-0----|
D|--------------------------------------------------|
A|--------------------------------------------------|
E|--------------------------------------------------|

    G
Quizá no sea el vino
    F
quizá no sea el postre
    C
quizá no sea
        G
no sea nada
      G
pero hay tanta belleza
   F
tirada en la mesa
   C              G
desnuda toda rebalsada
G
Apuras el vaso
F
vas perdiendo el paso
C                      G
y en la mesa ya no hay nada
   G
Borracha esta la puerta
    F
cerraste y quedo abierta
    C                  G
y puedo escuchar tu llamada
 G   F       C     G
Oh! Oh! Tan solo…
 G   F       C     G
Oh! Oh! Tan solo…
    G
Servida ya tu boca
     F
tan dulce tu boca
     C                  G
tan dulce con un blues amargo
   G
un vaso rueda al piso
 F
lento cae al piso
 C                     G
lento y muere en mil pedazos
            G
no quiero dejar que se vean
    F
tus ojos se vean
 C              G
tan, tan, tan, tristes
      G
habrá sido es destino
     F            C
ese vaso de vinoooooo
       G
que dijiste:
 G   F       C      G
Oh! Oh! Tan solo
 G   F       C      G
Oh! Oh! Tan solo

           F          C
Salta la cuerda, se enrieda
         G
y cae de boca (x3)
 G   F       C      G
Oh! Oh! Tan solo
 G   F       C      G
Oh! Oh! Tan solo

Bueno, Erores o Comentarios Diganmen.
 Chau y aguante los Piojos \()/!



Keywords / Palabras clave: Tan solo, los Piojos, letras, letra, acordes, canciones, cancion, grupo, banda, cantante, tablatura, partitura, tocar con guitarra, armónica, teclado, bajo, ejecutar, bajar, mp3, música, chords, lyrics, versión, cover, piano, acrodes, acordes de Tan solo, los Piojos

Inicio | Artistas | Recursos | Buscar | AGREGA TU TABLATURA A 10ACORDES | Contacto

www.10acordes.com.ar - 2014© - 2014-11-23 03:53:53