letra, letras, acorde, acordes, tablatura, tablaturas, partitura, partituras de la canción Te lloré un río de Maná, 35740

Te lloré un río de Maná

Colaboración de Mauricio Zetina Díaz (TAB)

(zetina @ correoweb.com)          (Visitas: 3751)

Ver Te lloré un río de Maná en vista para impresión



¿Dudas de cómo es un acorde? Visitar la página cómo formar acordes en guitarra

Maná 
¿Donde Jugarán los niños?

Tabulado por Mauricio Zetina *México*
-----------------------------------
Te llore todo un rio >Mi mayor (E)<

Se toca con dos guitarras. La primera toca el riff de la introducción
y la otra la acompaña con los acordes de arriba.
En el coro se toca tambien el riff en la primera guitarra.
En la última parte después del solo se toca el riff en la 1a guitarra.

Tabulatura:
h hammer --> se toca la primera nota y sin soltarla se hace sonar la otra
/ slide  --> se toca la primera nota y se desliza el dedo a la siguiente
(- - -)  --> se tocan las notas dentro del parentesis muy rápido

Intro.
      E             C#m		         A		B
E|---------------------------------------------------------------------------
A|---------------------------------------------------------------------------
D|---------------------------------------------------------------------------
G|----4-----------4--------4--------4----4-----------4--------4--------4-----
B|-------5-----5--------5--------5----------5-----5------7-7--------5--------
e|----------4--------7--------4----------------4-----------------4-----------

Se toca primero solo este riff con una guitarra 2 veces.

La tercera y cuarta vez se hacen con otra guitarra los acordes mientras se hace el riff.


E                      B
Yo aquí llorandote un rio
                 C#m
mandandome al olvido
                 B
que cosa mas injusta amor

E                       B
Fuiste matando mis pasiones
		  C#m
tachando mis canciones
                A
me tenías pisoteado
                B
estaba deshauciado
         	C#m      B     B-A#-A
no es justo no bebe

A			  B
pero este mundo ya giró
		  C#m
y ahora te tocó perder
       B
Oh Oh Eo

*CORO* (1a guitarra toca la intro)

E     C#m		A
Bebe, te lloré todo un rio
B
Bebe, Bebe
E     C#m	       A
Bebe, te lloré a reventar
B
Bebe, Bebe
E              C#m	      A
Oh no, no, no, no tienes corazón
B
no te vuelva a amar
E		 C#m
te lloré todo un rio
A		  B
ahora llorame un mar

E			   B
Ya no me busques ya es muy tarde
	       C#m
ya tengo otro amor
             B			  E
una chula sirena que nada en mi piel

E                        B
Yo te perdono no hay rencores
	   C#m
solo los dolores
		A
mi alma está arañada
		  B
lloré en suelo mojado
                 C#m      B      B-A#-A
no es justo no bebe

A			B
pero este mundo ya giró
		   C#m
y ahora te tocó perder
       B
Oh Oh Eo

*CORO* (1a guitarra toca la intro)

E     C#m		A
Bebe, te lloré todo un rio
B
Bebe, Bebe
E     C#m	       A
Bebe, te lloré a reventar
B
Bebe, Bebe
E              C#m	      A
Oh no, no, no, no tienes corazón
B
no te vuelva a amar
E		 C#m
te lloré todo un rio
A		  B
ahora llorame un mar

Solo.

E|---------------------------------------------------------------------------------------------
A|----2--4-------------------------------------------------------------------------------------
D|----------1--2--4----------------------------------------------------------------------------
G|-------------------1h2-----------------------------------------------------------------------
B|--------------------------/14--14--14--12--12--12--10--10--10--7----7--7----/14--11----------
e|--------------------------/12--12--12--11--11--11---9---9---9--9----9-----9-/12--12----------

E|---------------------------------------------------------------------------------------------
A|---------------------------------------------------------------------------------------------
D|---------------------------------------------------------------------------------------------
G|------6h9-------------------------------------------------------12---------------------------
B|-----------5h6h8-----------6--6/8/10-(10-10-10)--10--10/11--11------11-----------------------
e|------------------8--6--5-----------------------------------------------10--13--12-----------

(1a guitarra toca la intro)

       E		    C#m
De verdad que un rio te lloré 
       A		    B
de verdad que no te vuelvo a amar
          E
Oh, no no no
C#m	      A
no te vuelvo a amar
        B
Uuuuuu Uuuuuu Uuuuuu

       E		    C#m
De verdad que un rio te lloré 
       A		    B
de verdad que no te vuelvo a amar
          E
Oh, no no no
C#m	      A
pierde el tiempo amor
        B
Uuuuuu Uuuuuu Uuuuuu

       E		    C#m
De verdad que un rio te lloré 
       A		    B
de verdad que no te vuelvo a amar
          E
Oh, no no no
C#m	      A
llorame
        B                 E
Uuuuuu Uuuuuu Uuuuuu

------------------------------------------------------------------------------
Si tienes algúna otra canción de mana tabulada y quieres compartirla escribeme
a zetina@correoweb.com



Keywords / Palabras clave: Te lloré un río, Maná, letras, letra, acordes, canciones, cancion, grupo, banda, cantante, tablatura, partitura, tocar con guitarra, armónica, teclado, bajo, ejecutar, bajar, mp3, música, chords, lyrics, versión, cover, piano, acrodes, acordes de Te lloré un río, Maná

Inicio | Artistas | Recursos | Buscar | AGREGA TU TABLATURA A 10ACORDES | Contacto

www.10acordes.com.ar - 2014© - 2014-10-31 01:27:28