letra, letras, acorde, acordes, tablatura, tablaturas, partitura, partituras de la canción Te quiero de Amen, 35905

Te quiero de Amen

Colaboración de renzo gonzales ospina (TAB)

(dobleerre @ hotmail.com)          (Visitas: 13431)

Ver Te quiero de Amen en vista para impresión



¿Dudas de cómo es un acorde? Visitar la página cómo formar acordes en guitarra

bueno gente aqui estoy de nuevo y comno tanto me han fregao al mail
pidiendo el punteo de este temita, aqui esta pues y que lo disfruten 
y aqui primero les voy a poner unos arreglos que tiene la cancion.
pongale mucho filing y a tocar pes.
ahh !! me olvidava esta cancion la e cambiado me e dado cuenta que 
suena mejor en DO mayor asi que aqui esta transcrita y naa pes a tocar 
y sorry si me demore un poco en pasarla pero no tenia tiempo....


riff 1                         equivalencias:

1|---0-0-0-0----               C  D  E  F  G   A  B 
2|---5-4-3-1----               do re mi fa sol la si
3|---4-3-2-0----
4|--------------
5|--------------
6|--------------

riff 2

1|---333-444-555-666--
2|---333-444-555-666--
3|--------------------
4|--------------------
5|---2----------------
6|---3----------------

y bueno yo les indicare donde van cada uno de esos arreglos y la cancion va asi:

INTRO:

        C          E          Am          C             F      Fm  G
1|-------------------------------------------------5---------------------
2|----------------------------------------8-7-6-7-8-6-5-5~-3~-1----------
3|-----5-7~-7~-7-5-----7~-7~-4-4-4---4-5-----------------------6~-6-5----
4|---6-------------6---------------7---------------------------------7-5-
5|-----------------------------------------------------------------------
6|-----------------------------------------------------------------------


    C                  E    Am          C         F     
1|-----------------------------------------------------------------------
2|-------------------------------------------------6-----------6-----6---
3|--9----9----9-10~-9-------9-12-9-12-9-7-10-7-10-7-5-----5-----5-----5--
4|----10---10---------5/6-9~-------------------------7-----7-----7-----7-
5|----------------------------------------------------8------------------
6|-----------------------------------------------------------------------


   Fm          G
1|------------------------
2|-------6----------------
3|---5-----5--------------
4|-6---6-----6-4/5~-5-----
5|------------------------
6|------------------------


estrofa:

C                    E
Cuando en las calles al caminar 
Am                       C                 F
prendo un cigarrro y me pongo a pensar en ti 
               Fm  G riff1
mmmm.. solo en ti ...
C                 E
siento tu risa y al despertar 
   Am                   C
solo me doy cuenta que no era verdad 
F                        Fm
nose, nose si pueda aguantar
    G 
oh no....

coro:
	F                     G#
	y es que tienes algo muy especial 
	C                     A7
	tienes un encanto que me va a matar
	       F           G                C
	eres como una rosa que no la puedo tocar oh noo
	y solo quiero decirte una ves mas que te quiero
	y ya nose que hacer no me quiero pelar 

E              Am
anduve por las calles
C              G riff2
en busca del amoooooooorrr
F                     Fm
pero nuca te encontre 
       G
oh yo nunca te encontre 
         G
oh maldicionnn ohhhhhhh 

PUNTEO:
nota: el punteo se hace con las mismas notas de la estrofa
                                
                                                              tocar
                                                           |--rapido---|
1|-----8------------------------------------------------------------------
2|------8-9----------6~6~6~6~6~6~---------------------------6-5-5---------
3|---7~------5-7-5~s1------------8-5-5-8~--5/7-7-7-5/7-7-7-----7-7-5-4----
4|--------------------------------------------------------------------5---
5|------------------------------------------------------------------------
6|------------------------------------------------------------------------


1|--------------|-------------------------------8-------------------------
2|-------5-6-7~-|-7~-5------------6~-5-----------8-5s3-3--3-1-------------
3|---5-7--------|------5--5-7-5-7------5---5-7~----------5-2-2------------
4|--------------|--------7----------------7--------------------4/5-5~-----
5|--------------|---------------------------------------------------------
6|--------------|---------------------------------------------------------

cuando al fin te ´pude besar 
senti que eras mi droga 
y no puedo dejarte no
no te puedo dejar de amar...

cuando te miro puedo soñar 
con tocar el cielo y volar como superman..
como superman...

rep. coro...


Nota: ahi esta gente completita pongale filing pes y dediquenlas a sus 
respectivas domadoras....
pronto otros temitas chaufa...
renzo.



Keywords / Palabras clave: Te quiero, Amen, letras, letra, acordes, canciones, cancion, grupo, banda, cantante, tablatura, partitura, tocar con guitarra, armónica, teclado, bajo, ejecutar, bajar, mp3, música, chords, lyrics, versión, cover, piano, acrodes, acordes de Te quiero, Amen

Inicio | Artistas | Recursos | Buscar | AGREGA TU TABLATURA A 10ACORDES | Contacto

www.10acordes.com.ar - 2014© - 2014-12-22 11:37:39