letra, letras, acorde, acordes, tablatura, tablaturas, partitura, partituras de la canción Todos los rockeros van al infierno de Barón Rojo, 36693

Todos los rockeros van al infierno de Barón Rojo

Colaboración de Napoleón Morales (TAB)

(napo_hierba @ latinmail.com)          (Visitas: 10960)

Ver Todos los rockeros van al infierno de Barón Rojo en vista para impresión



¿Dudas de cómo es un acorde? Visitar la página cómo formar acordes en guitarra

Intro (Repite hasta que veas este signo (#) en la letra)

----------------------------------------------------------
----------------------------------------------------------
----------------------------------------------------------
-10------10/ 13------13\ 8--------8/ 10----8/ 10----------
-10------10/ 13------13\ 8--------8/ 10----8/ 10----------
- 8 -------8 / 11------11\ 6--------6/ 8-----6/ 8---------

C C Eb Eb A# A# C A# C

estais hay nos vamos al infierno al infierno ehhh (#) (feedback)
(figura 0)repita 2 veces

--------------------------------------------------------------12bv^v^v^v
---12br12---9V^V^V-----12br12--------------12br12—9—12br12p9------------
-----------------------------------------12v^v^v------------------------
------------------------------------------------------------------------
------------------------------------------------------------------------
------------------------------------------------------------------------

lirics (fig 1) 2 veces

-------------------------------------------------------------------------------
-------------------------------------------------------------------------------
--5-------------------8--------------------------------10----------------------
--5-------------------8--------------------------------10----------------------
--3-------------------6---------------------------------8----1--1----------1—1-
-------------------------------------------------------------3--3—3v^v-3—3--3--


se oye comentar a las gentes del lugar los rockeros no son buenos
si no te portas bien te hecharas pronto a perder y caerás en el infierno
precoro (figura 2.1) 2 veces        figura 2.2                              pm------¬

----------------------------------------- |-----------------------------------------------
----------------------------------------- |-----------------------------------------------
-5-------8-----------10-----5------------ |--8---------------- ----5--------8------7-7-7-7
-5-------8-----------10-----5------------ |--8--8------------ 8--5--------8--8---7-7-7-7--
-3-------6------------8------3----------- |--6--8------------ 8--3--------6--8---5-5-5-5--
----------------------------------------- |----- 6------------ 6---------------6----------

C Eb F C
con figura 2.1
(C)si has de (Eb)vivir en el (F) mal y en el (C)rock 
(C)te (Eb)alcanzara(F) la (C)maldición
con figura 2.2
(Eb) (A#)nunca tendras (A#) (C)reputación (Eb)(A#)que mas da (D) mi rollo es el rock
repetir figura 0 
con figura 1
facil afeitar y ya salir del lugar y ademas con tias buenas
dicen que fumar es pecado y es mortal y al infierno me condea
(con figura 2.1 )
si he de escoger entre ellos y el roll 
elgire mi perdicion
(con figura 2.2 )
se que al final tendre razon y ellos no mi rollo es el rock

fig3.1 fig 3.2 pm------¬ fig 3.3

|----------------- |------------------------ |-----------------------------
|----------------- |------------------------ |-----------------------------
|----------------- |------------------------ |-----------------------------
|----------------- |------------------------ |-----------------------------
|--3-2-1-0---------|--3-2-1-0----------------|-----------------------------
|------------3---- |------------3-3-3-3------|--3-3-3-3-3-3-3-3------

fig 3.2.1

|-------------------------3-3-3---
|-------------------------3-3-3---
|---------------------------------
|---------------------------------
|---3-2-1-0----------------------
|--------------3-3-3-3-----------

la figura 3.1 la tocan guitarra 1 guitarra 2 y bajo. 
Cuando empiezan a hablar con el publico la guitarra 1 y el bajo tocan la figura 3.2,
la guitarra 2 toca esta parte metiendo la variación de la figura 3.2.1.
Cuando le piden al publico que grite antes del grito todos tocan la figura 3.3 
pasando el grito cuando hablan con el publico regresan a la figura 3.2 y 3.2.1 
respectivamente


|-----x-x-x-x------------x-x-x-x-------------x-x-x-x--------------x-x-x-x--------------
|-----x-x-x-x------------x-x-x-x-------------x-x-x-x--------------x-x-x-x--------------
|-----x-x-x-x--5-5-5-5-5—x-x-x-x-------------x-x-x-x--------------x-x-x-x--------------
|-----x-x-x-x--5-5-5-5-5—x-x-x-x---8-8-8-8-8-x-x-x-x--3-3-3-3-3---x-x-x-x---5-5-5-5-5--
|-----x-x-x-x--3-3-3-3-3—x-x-x-x---8-8-8-8-8-x-x-x-x--3-3-3-3-3---x-x-x-x---5-5-5-5-5--
|-----x-x-x-x------------x-x-x-x---6-6-6-6-6-x-x-x-x--1-1-1-1-1---x-x-x-x---3-3-3-3-3--

solo
con figura 1
la risa que me da esa farsa humanidad de los que se dicen buenos
no perdonaran mi pecado original de ser joven y rockero
(con figura 2.1 )
si he de escoger entre ellos y el roll 
elgire mi perdicion
(con figura 2.2 )
se que al final tendre razon y ellos no¡¡¡¡¡¡todos!!!!!! [mi rollo es el rock]



Keywords / Palabras clave: Todos los rockeros van al infierno, Barón Rojo, letras, letra, acordes, canciones, cancion, grupo, banda, cantante, tablatura, partitura, tocar con guitarra, armónica, teclado, bajo, ejecutar, bajar, mp3, música, chords, lyrics, versión, cover, piano, acrodes, acordes de Todos los rockeros van al infierno, Barón Rojo

Inicio | Artistas | Recursos | Buscar | AGREGA TU TABLATURA A 10ACORDES | Contacto

www.10acordes.com.ar - 2014© - 2014-11-24 03:19:30