letra, letras, acorde, acordes, tablatura, tablaturas, partitura, partituras de la canción Tres Notas Para Decir Te Quiero de Vicente Amigo, 37243

Tres Notas Para Decir Te Quiero de Vicente Amigo

Colaboración de jmontoya (TAB)

(jmontoyag_2000 @ atame.org)          (Visitas: 19784)

Ver Tres Notas Para Decir Te Quiero de Vicente Amigo en vista para impresión



¿Dudas de cómo es un acorde? Visitar la página cómo formar acordes en guitarra

Esta es la musica de ese anuncio de San Miguel. 
La melodia es genial:



e----------7--5----------|-7----5----8-|-------7--|----|
B-------5--------8--7--5-|-------------|-8--7-----|7--5|
G----4-------------------|-------------|----------|----|
D------------------------|-------------|----------|----|
A------------------------|-------------|----------|----|
E------------------------|-------------|----------|----|



e----------7--5----------|-7----5----11-|------7-|-----|
B-------5--------8--7--5-|--------------|8--7----|-7--5|
G----4-------------------|--------------|--------|-----|
D------------------------|--------------|--------|-----|
A------------------------|--------------|--------|-----|
E------------------------|--------------|--------|-----|



e------14--12--15--14-----|-------------12-|-----------|
B--12------------------12-|-15------13-----|-13--------|
G-------------------------|----------------|-----------|
D-------------------------|----------------|-----------|
A-------------------------|----------------|-----------|
E-------------------------|----------------|-----------|


e---------|-------------------------|-5----------------|
B--12--15-|-12--------7--5--8--7----|----8--7--8-------|
G---------|--------4--------------4-|-------------5----|
D---------|-------------------------|------------------|
A---------|-------------------------|------------------|
E---------|-------------------------|------------------|
         s
e---------------------------------------------------|
B----5--5\4-----------------------------------------|
G---------------------------------------------------|
D---------------------------------------------------|
A---------------------------------------------------|
E---------------------------------------------------|



Keywords / Palabras clave: Tres Notas Para Decir Te Quiero, Vicente Amigo, letras, letra, acordes, canciones, cancion, grupo, banda, cantante, tablatura, partitura, tocar con guitarra, armónica, teclado, bajo, ejecutar, bajar, mp3, música, chords, lyrics, versión, cover, piano, acrodes, acordes de Tres Notas Para Decir Te Quiero, Vicente Amigo

Inicio | Artistas | Recursos | Buscar | AGREGA TU TABLATURA A 10ACORDES | Contacto

www.10acordes.com.ar - 2014© - 2014-07-26 05:48:18