letra, letras, acorde, acordes, tablatura, tablaturas, partitura, partituras de la canción Tu Forma de Ser de Alberto y Roberto, 37582

Tu Forma de Ser de Alberto y Roberto

Colaboración de JONATHAN " EL PRE" (TAB)

(prehernandez08 @ msn.com)          (Visitas: 18490)

Ver Tu Forma de Ser de Alberto y Roberto en vista para impresión



¿Dudas de cómo es un acorde? Visitar la página cómo formar acordes en guitarra

  BUENO AQUI ESTA ESTA TRANSCRIPCION DE ESTA ROLA, INCLUYENDO EL REQUINTO DEL PRINCIPIO 
  COMO LO PIDIERON. 
  EL REQUINTO DE EN MEDIO ES IGUAL ASI QUE NADAMAS CHEQUEN DONDE ENTRA, BUENO ESPERO QUE 
  LES GUSTE Y CUALQUIER ACLARACION, PEDIDO , QUEJA , INVITACION, ETC... ME LO PUEDEN HACER 
  LLEGAR A prehernandez08@msn.com

E ---------------/-----------------------/-----------------------------------------------------/ 
A ---------------/-----------------------/-----------------------------------------------------/
D ---------------/-----------------------/-----------------------------------------------------/
G ---------------/-----------------------/-----------------------------------------------------/
B -----------9-9-/-9-9-9--11---------8-8-/--16-16-16/14-14--14/13--13-13--11--11--8-9-9-11--13-/
e -11-11-11------7-----------8-9-11------/--15-15-15/13-13--13/11--11-11---9---9--6-8-8--9--11-/

E ---------------------/----------------------------------/----------------------------------------------------------------------/
A ---------------------/----------------------------------/----------------------------------------------------------------------/
D ---------------------/----------------------------------/----------------------------------------------------------------------/
G ---------------------/----------------------------------/--8------8------8------8----------------------------------------------/
B ---------------------/-------11-9-11--------------------/----9------9------9------9-----16-16-16/14---14-14/13--13-13/11-11-11-/
e -11-9-8-8-8-8-11-9-8-/-8/9/8---------8-8-8-8-11-9-8/9/8-/------11-----11-----11-----11--15-15-15/13---13-13/11--11-11/-9--9--9-/



G				            Bm
Te vi llegar del brazo de una amigo cuando entraste al bar

 		         Am
y te caíste al piso me tiraste una chela y me tiraste el sifón

        D7
y estallaron los vidrios de mi corazón.

     G				            Bm
Te vi bailar brillando con tu ausencia sin sentir llevar

 			     Am
chocando con las mesas te burlaste de todos te reíste de mi

       D7
tus amigas se escaparon de ti.

	         G
Y a mi me volvió loco tu forma de ser

 	         Bm
y a mi me vuelve loco tu forma de ser

      Am
tu egoísmo y tu soledad

         D7
son estrellas en la noche de la mediocridad.

	   G
Me vuelve loco tu forma de ser

 	        Bm
a mi me volvió loco tu forma de ser

     Am
tu egoísmo y tu soledad

     D7
son joyas en el barco de la mediocridad.


intro

E ---------------/-----------------------/-----------------------------------------------------/ 
A ---------------/-----------------------/-----------------------------------------------------/
D ---------------/-----------------------/-----------------------------------------------------/
G ---------------/-----------------------/-----------------------------------------------------/
B -----------9-9-/-9-9-9--11---------8-8-/--16-16-16/14-14--14/13--13-13--11--11--8-9-9-11--13-/
e -11-11-11------7-----------8-9-11------/--15-15-15/13-13--13/11--11-11---9---9--6-8-8--9--11-/

E ---------------------/----------------------------------/----------------------------------------------------------------------/
A ---------------------/----------------------------------/----------------------------------------------------------------------/
D ---------------------/----------------------------------/----------------------------------------------------------------------/
G ---------------------/----------------------------------/--8------8------8------8----------------------------------------------/
B ---------------------/-------11-9-11--------------------/----9------9------9------9-----16-16-16/14---14-14/13--13-13/11-11-11-/
e -11-9-8-8-8-8-11-9-8-/-8/9/8---------8-8-8-8-11-9-8/9/8-/------11-----11-----11-----11--15-15-15/13---13-13/11--11-11/-9--9--9-/



G				      Bm
Viniste a mí tomaste mi cerveza me sonreíste así

 			   Am
nadando en tu demencia no sabia que hacer


te trate de besar me pegaste un sopapo

        D7
y te pusiste a llorar

	         G
Y a mi me volvió loco tu forma de ser.....



Keywords / Palabras clave: Tu Forma de Ser, Alberto y Roberto, letras, letra, acordes, canciones, cancion, grupo, banda, cantante, tablatura, partitura, tocar con guitarra, armónica, teclado, bajo, ejecutar, bajar, mp3, música, chords, lyrics, versión, cover, piano, acrodes, acordes de Tu Forma de Ser, Alberto y Roberto

Inicio | Artistas | Recursos | Buscar | AGREGA TU TABLATURA A 10ACORDES | Contacto

www.10acordes.com.ar - 2014© - 2014-07-23 14:43:24