letra, letras, acorde, acordes, tablatura, tablaturas, partitura, partituras de la canción Tú de Noelia, 37411

de Noelia

Colaboración de Jo (TAB)

()          (Visitas: 21081)

Ver Tú de Noelia en vista para impresión



¿Dudas de cómo es un acorde? Visitar la página cómo formar acordes en guitarra

Espero que les guste esta version, yo el intro lo toco asi, 
Gracias a Eddy 'Abolengo' por su ayuda. Esta cancion se la dedico
a 'Yohana' una chava que conosi, y que le gusta esta cancion
y espero que la practique y cante como la canto en la fiesta en la 
que la conosi.  




Intro

e--7---4-5-7---10-10---9---9-----7/9---9-----7--5--2-3-7---
B--9---5-7-9---12-12---11--11----9/11--11----9--7--3-5-9---

e--7-7--6-6--7/6-6---5--3---0-1-3--7-7-6-6--5/6--6-6--5--5--
B--9-9--8-8--9/8-8---7--5---1-2-5--9-9-8-8--7/8--8-8--7--7-- 

e--4/5--5-5--4-4/3/4------
B--6/7--7-7--6-6/5/6------



Estos Acordes Uso En el Frases


G#m   F#  B  Am  A  C#m  G#m

           CORO

E    A     B   A    A    F#     B    E   B   E   A   F#m   B   E

           Ritmo Rapido (Y es Que)

G#m  F#m   B  E   A    B   E

           Musica

A  B  E  A  F#m




*Este arreglo es el que toco yo despues de la 1a. frase.

e-------------------------
B-----7--9--7----7-9-7----
G-------------------------
A--9----------9-----------
D-------------------------
E-------------------------

Tiene que haber un error por algun lado, ya que no soy un genio
pero espero que le entiendan y hojala que la disfruten. 

Esta cancion fue escrita por J. Luis Ramos Jr. 1979.



Keywords / Palabras clave: Tú, Noelia, letras, letra, acordes, canciones, cancion, grupo, banda, cantante, tablatura, partitura, tocar con guitarra, armónica, teclado, bajo, ejecutar, bajar, mp3, música, chords, lyrics, versión, cover, piano, acrodes, acordes de Tú, Noelia

Inicio | Artistas | Recursos | Buscar | AGREGA TU TABLATURA A 10ACORDES | Contacto

www.10acordes.com.ar - 2014© - 2014-09-23 11:01:58