letra, letras, acorde, acordes, tablatura, tablaturas, partitura, partituras de la canción Un idiota de Joan Sebastian, 38256

Un idiota de Joan Sebastian

Colaboración de José Arturo Ruiz Santoyo 'El Temerario Mayor' (TAB)

(temerario_mayor @ hotmail.com)          (Visitas: 20126)

Ver Un idiota de Joan Sebastian en vista para impresión



¿Dudas de cómo es un acorde? Visitar la página cómo formar acordes en guitarra

según sergio López y los nervios del temerario,
el requinto queda:


El requinto, se acompaña de un arpegeo. cada quien, puede poner el que
mejor le convenga, allá ustedes

              A         A            A
E---------------------------------------
A---------------------------------------
D-------4*2-----------------------------
G----4*2-----6---9-7-6-------------------9-7-6
B-3*2---------------------10/13-15--15--
e------------5---9-7-5------------15--13-9-7-5

enseguida el verso: y se toca
     A                                
G------------------------------------------
B--10-12-------12-10---10-12-------12-10-10
e-9------9-10-9-----9--------9-10-9--------
       D              E
G-11-----------------11---
B----9-10-10/12-10-9---7-9
e-------------------------


G------------------------------------------
B--10-12-------12-10---10-12-------12-10-10
e-9------9-10-9-----9--------9-10-9--------

aqui se toca igual, pero al final se le agrega un golpe

G-11-----------------11---
B----9-10-10/12-10-9---7-9-10
e-------------------------

Bueno, los arreglos de la canción, son derivados 
del requinto y pues no los creo tan bestias para 
no saberlos sacar. pero el final es:

...Soy Un Idiota, te perdí pero te amo...

E
A-------------0
D--2----------2
G---0-2-3/4-2-2
B-------------2
e-------------0

Dudas, Comentarios... ya saben. la cagan, pero la va a cagar, quien no lo pueda sacar.
atte ya saben (El temera mayor



Keywords / Palabras clave: Un idiota, Joan Sebastian, letras, letra, acordes, canciones, cancion, grupo, banda, cantante, tablatura, partitura, tocar con guitarra, armónica, teclado, bajo, ejecutar, bajar, mp3, música, chords, lyrics, versión, cover, piano, acrodes, acordes de Un idiota, Joan Sebastian

Inicio | Artistas | Recursos | Buscar | AGREGA TU TABLATURA A 10ACORDES | Contacto

www.10acordes.com.ar - 2014© - 2014-12-19 06:49:29